Song name
# A B C D E F G H I J K L M N O P Q R S T U V W X Y Z

Nujabes - Aruarian Dance tab

Aruarian Dance by Nujabes
Tabbed by Aaron Ishibashi

(Optional) Tune all strings down a Minor 3rd interval (3 half steps) 
to match the key of the original soundtrack
The order of the newly tuned strings will be:
c#|-----|
G#|-----|
E |-----|
B |-----|
F#|-----|
C#|-----|


Intro(0:00)
  Bm7(add9)            E            Bm7(add9) C#m7  
e|------9-----9-------------7/-12--9---9-------7-------|
B|-----7---------7---------------------------7-------5-|
G|----7-----7------7-----------------------7-------4---|
D|---7----7----------7--6----------------7-------6-----|
A|--9------------------------------------------4-------|
E|-7-------------------0--------------7----------------|

   DMaj7   E7m9    A2(add6)         D7M9
e|-5-------7-------2-------2----------------------|
B|-------7---6---------2--2---2----------5/10--9--|
G|-----6-------7-------4-4------4-----5-----------|
D|---7-----------6---2---------------4------------|
A|-5---------------0----------------5-------------|
E|---------0--------------------------------------|

Beat starts here(0:17)
   A2(add6)
e|-------2--------|
B|-----2----2-----|
G|-----4------4---|
D|---2----------2-|
A|-0--------------|
E|----------------| x8

Main riff(0:36)
   Bm7(add9)         E
e|-9--------9-----------7/12---9--|
B|---------7--7-------------------|
G|-----7--7-----7-----------------|
D|---7---7--------7--6------------|
A|--------------------------------|
E|-7-----------------0------------| x2

 Bm7add9/A C#m7/G# Bm7/F#  E7b5   F#7sus4  F#7b5
e|----9---9---7---7---5---5---4-----14--------|
B|---7---7---5---5---3---3---3----------------|
G|--7---7---6---6---4---4---3-----11----------|
D|-7---7---6---6---4---4---2------------------|
A|--------------------------------------------|
E|--------------------------------------------|







(0:56)
   Bm7(add9)         E
e|-9--------9-----------7/12---9--|
B|---------7--7-------------------|
G|-----7--7-----7-----------------|
D|---7---7--------7--6------------|
A|--------------------------------|
E|-7-----------------0------------| x3

 Bm7add9/A C#m7/G# 
e|----9---9---7---7-|
B|---7---7---5---5--|
G|--7---7---6---6---|
D|-7---7---6---6----|
A|------------------|
E|------------------| x2

   Bm7(add9)         E
e|-9--------9-----------7/12---9--|
B|---------7--7-------------------|
G|-----7--7-----7-----------------|
D|---7---7--------7--6------------|
A|--------------------------------|
E|-7-----------------0------------| x3

 Bm7add9/A C#m7/G# Bm7/F#  E7b5   F#7sus4  F#7b5
e|----9---9---7---7---5---5---4-----14--------|
B|---7---7---5---5---3---3---3----------------|
G|--7---7---6---6---4---4---3-----11----------|
D|-7---7---6---6---4---4---2------------------|
A|--------------------------------------------|
E|--------------------------------------------|

Bridge(1:39)
  G#m7b5/B        Bm7     C#m7
e|-------2--2-----------2-------4-|
B|-----3------3-------3-------5---|
G|---1----------2---2-------4-----|
D|--------------------------------|
A|-2--------------2-------4-------|
E|--------------------------------| x4

Main riff(1:59)
   Bm7(add9)         E
e|-9--------9-----------7/12---9--|
B|---------7--7-------------------|
G|-----7--7-----7-----------------|
D|---7---7--------7--6------------|
A|--------------------------------|
E|-7-----------------0------------| x3

Bm7add9/A C#m7/G#         Bm7/F#   E7b5   F#7sus4 F#7b5
e|----9---9---7---7-|    |----5---5---4-----14--------|
B|---7---7---5---5--|    |---3---3---3----------------|
G|--7---7---6---6---|    |--4---4---3-----11----------|
D|-7---7---6---6----|    |-4---4---2------------------|
A|------------------|    |----------------------------|
E|------------------|x3  |----------------------------| x2 whole line





Outro(2:42)
   Bm7(add9)         E
e|-9--------9-----------7/12---9--|
B|---------7--7-------------------|
G|-----7--7-----7-----------------|
D|---7---7--------7--6------------|
A|--------------------------------|
E|-7-----------------0------------| x3

 Bm7add9/A C#m7/G# 
e|----9---9---7---7-|
B|---7---7---5---5--|
G|--7---7---6---6---|
D|-7---7---6---6----|
A|------------------|
E|------------------| x2

[x2 Outro]

End(3:20)
   Bm7(add9)         E
e|-9--------9-----------7/12---9--|
B|---------7--7-------------------|
G|-----7--7-----7-----------------|
D|---7---7--------7--6------------|
A|--------------------------------|
E|-7-----------------0------------| x3

 Bm7add9/A C#m7/G# Bm7/F#  E7b5   F#7sus4  F#7b5
e|----9---9---7---7---5---5---4-----14--------|
B|---7---7---5---5---3---3---3----------------|
G|--7---7---6---6---4---4---3-----11----------|
D|-7---7---6---6---4---4---2------------------|
A|--------------------------------------------|
E|--------------------------------------------|
Tap to rate this tab
 
# A B C D E F G H I J K L M N O P Q R S T U V W X Y Z