Nujabes - Counting Stars tab

Guitar 1

e|-----------------------|      e|--------------------------------------|
b|-----------------------|      b|--------------------------------------|
g|--11-11p9--14-12-12-11-|      g|9---9---7~-9--9---7~------------------|
d|-----------------------|      d|11--11--9~-11-11--9~----------10h12h13|
a|-----------------------|      a|----------------------10h12h13--------|
E|-----------------------|      E|--------------------------------------|
                                                 
Guitar 2
e|-2-2p0-5-3-3-2---------|      e|--------------------------------------|
b|-----------------------|      b|5--5--3~-5--5--3~-------------3h5h6---|
g|-----------------------|      g|6--6--4~-6--6--4~-------3h5h6---------|
d|-----------------------|      d|--------------------------------------|
a|-----------------------|      a|--------------------------------------|
E|-----------------------|      E|--------------------------------------|

e|2--2--2--5--3--3--2----|      
b|--0--0-----------------|      
g|-0--0------------------|      
d|-----------------------|     
a|-----------------------|      
E|-----------------------|      

e|2-2-2-2-2-2-5-5-5-5-5-2-2-2--2-2-2--2-2--2-2-|
b|-0-0-0-0----------------5-5--5-5-5--5-5--5-5-|
g|------------------------6-6--6-6-6--6-6--6-6-|
d|---------------------------------------------|
a|---------------------------------------------|
E|---------------------------------------------|
Tap to rate this tab
 
# A B C D E F G H I J K L M N O P Q R S T U V W X Y Z