Song name
# A B C D E F G H I J K L M N O P Q R S T U V W X Y Z

Nujabes - Down On The Side tab

Nujabes - Down on the Side


e|-------------------------------0-1-3p1-0---------------------------|
B|-1-3-3/5-3-5-3-1-3/5-3-5-333-3-------------------------------------|
G|---------------------------------------2-0-2-5---------------------|
D|-----------------------------------------------7-------------------|
A|-------------------------------------------------------------------|
E|-------------------------------------------------------------------|

e|-------------------------------0-1-3p1-0---------------------------|
B|-1-3-3/5-3-1-3-1-3-3/5-3-1-3-3-------------------------------------|
G|-----------------------------------------5-2-0-2--0-2-5-2-5-5-5/7--|
D|-------------------------------------------------------------------|
A|-------------------------------------------------------------------|
E|-------------------------------------------------------------------|

e|------------0-1-1/3-3/5-6-6/8-8-6----------------------------------|
B|-1-3--3/5-3-----------------------6 /8-6-5-3--1-3------------------|
G|-------------------------------------------------------------------|
D|-------------------------------------------------------------------|
A|-------------------------------------------------------------------|
E|-------------------------------------------------------------------|

e|----0-1-1/3-3-5-5-6-8-6-5-------8-10-10/12-12-12--12-10------------|
B|--3-----------------------6-6/8------------------------------------|
G|-------------------------------------------------------------------|
D|-------------------------------------------------------------------|
A|-------------------------------------------------------------------|
E|-------------------------------------------------------------------|
Tap to rate this tab
# A B C D E F G H I J K L M N O P Q R S T U V W X Y Z