Song name
# A B C D E F G H I J K L M N O P Q R S T U V W X Y Z

Nujabes - Aruarian Dance tab

tabbed by ruffles this is the complete and standard tunned song... may be incorresct but 
about right to me... listen to the song to get the feel...

email: gingerbreadboy90@hotail.com


intro:
e|------6----6-------------------4/9---6---6-------4-------2----|
B|-----6--------4---------------------------------4-------2-----|
G|----6----4-----4------------------------------4-------1-------|
D|---6----4--------4-----3---------------------4-------3--------|
A|--6-----------------------------------------------1-----------|
E|-4---------------------------------------4--------------------|

e|--------4--------------------------------------------------|
B|-----4-----3--------4-------4------------1------2/7--6-----|
G|----4--------4----------3---3---3---1----2-----------------|
D|---4-----------4------4-----4------------1-----------------|
A|-2---------------------------------------------------------|
E|-----------------------------------------------------------|

e|-------------------|
B|----------4--3--1--|
G|------3---3--------|
D|------------------4|
A|---4------4--------|
E|-2-----------------| <<(repeat x7)


main riff:
e|-6---------6-----------4/9---6---|
B|----------4--4-------------------|
G|-----4---4-----4-----------------|
D|---4----4--------4---3-----------|
A|---------------------------------|
E|-4-------------------------------| <<(repeate x2)

e|----6---6---4---4---2---1---1-----11--------|
B|---4---4---2---2---0---0---0----------------|
G|--4---4---3---3---1---1---0-----8-----------|
D|-4---4---3---3---1---1---0------------------|
A|--------------------------------------------|
E|--------------------------------------------|

main riff:
e|-6---------6-----------4/9---6---|
B|----------4--4-------------------|
G|-----4---4-----4-----------------|
D|---4----4--------4---3-----------|
A|---------------------------------|
E|-4-------------------------------|  <<(reapeat x3)

e|----6---6---4---4-|
B|---4---4---2---2--|
G|--4---4---3---3---|
D|-4---4---3---3----|
A|------------------|
E|------------------|  <<(repeat x2)

e|-6---------6-----------4/9---6---|
B|----------4--4-------------------|
G|-----4---4-----4-----------------|
D|---4----4--------4---3-----------|
A|---------------------------------|
E|-4-------------------------------|  <
Tap to rate this tab
 
# A B C D E F G H I J K L M N O P Q R S T U V W X Y Z