Song name
# A B C D E F G H I J K L M N O P Q R S T U V W X Y Z

Nujabes - Lady Brown tab

Title:Lady Brown by Nujabes
Tabbed by:Dean Gregorio


Tuning: Standard (EADGBe)

Intro (4x)
e|-3--2--0----8--7--5-------------3--2--0-----12-10------------------------|
B|--------------------8--7--5-----------------------13-12-10---------------|
G|-------------------------------------------------------------------------|
D|-2--0---------------------------2--0-------------------------------------|
A|-------3------------------------------3----------------------------------|
E|-------------------------------------------------------------------------|


Verse (3x)
e|--3--5-5--7-7----------------------------12--------------------------------|
B|-----------------8--10--8--10--10/12-10----10------------------------------|
G|-----------------9---------------------12----------------------------------|
D|---------------------------------------------------------------------------|
A|---------------------------------------------------------------------------|
E|---------------------------------------------------------------------------|

e|-5--7-7--8-8--10---10h12-----------------4h5-4h5---------------------------|
B|--------------------------10~~~~------------5------------------------------|
G|---------------------------------------------------------------------------|
D|---------------------------------------------------------------------------|
A|---------------------------------------------------------------------------|
E|---------------------------------------------------------------------------|

e|--3--5-5--7-7----------------------------12--------------------------------|
B|-----------------8--10--8--10--10/12-10----10------------------------------|
G|-----------------9---------------------12----------------------------------|
D|---------------------------------------------------------------------------|
A|---------------------------------------------------------------------------|
E|---------------------------------------------------------------------------|

e|-10--8------------------------------12-------------------------------------|
B|---------/12----/8-8~~~----------------------------------------------------|
G|------9-------5---5------------12------------------------------------------|
D|----------------------------------12---------------------------------------|
A|---------------------------------------------------------------------------|
E|---------------------------------------------------------------------------|


Chorus (2x)
e|-3--2--0----8--7--5-------------3--2--0-----12-10------------------------|
B|--------------------8--7--5-----------------------13-12-10---------------|
G|-------------------------------------------------------------------------|
D|-2--0---------------------------2--0-------------------------------------|
A|-------3------------------------------3----------------------------------|
E|-------------------------------------------------------------------------|



Intro
Verse
Chorus
Verse
Chorus
Verse
Outro (same notes as Intro)

Tap to rate this tab
 
# A B C D E F G H I J K L M N O P Q R S T U V W X Y Z