Song name
# A B C D E F G H I J K L M N O P Q R S T U V W X Y Z

Nukeateen - Face Up tab

Tabbed by:Grunge Forever

Artist: Nukeateen
Song:   Face Up
Album:  Ozone

http://myspace.com/nukeateen

This is Face Up from the band Nukeateen, featuring an increadible bass line and
very catchy guitar riff. This is the guitar tab, I'll do the bass seperatly! have fun

(/) Slide Up  (\) Slide Down  (h) Hammer On  (p) Pull Off  (b) Bend (r) Release (v) Vibrato

Intro...

E|-------------------------------------------------|
B|-------------------------------------------------|
G|-------------------------4----4----7----7--7-x-x-|
D|-4--4----4-8--8--8---x-x-4----4----7----7--7-x-x-|
A|-4--4----4-8--8--8---x-x-2----2----5----5--5-x-x-|
E|-2--2----2\6--6--6---x-x-------------------------|

Chorus and verse play the same riff, but distorted on the chorus

Verse

Don't know how but it's time I sang,
And I'm high on the way to fame,
Don't know what I'm doing when I play,
But I'll make it up, make it up as I go along

Chorus

Make it up, make it up, make it up as I go along,
Make it up, make it up, Theres no one else to blame,

--Variations--

Verse 2

The opening two bars play:

E|-------------------------------------------------|
B|-------------------------------------------------|
G|------------------------------4----7---------7---|
D|-------4---------8------------4----7-------7-----|
A|----4----4----8-----8----2---------5----5--------|
E|-2---------6-------------------------------------|

On the outro, the guitar plays up high on the bar before the last

E|-------------------------------------------------|
B|-------------------------------------------------|
G|-11-11---11\15-15--15-16-16----7----x--x-x-x-----|
D|-------------------------------------------------|
A|-9--9----9-\13-13--13-14-14----5----x--x-x-x-----|
E|-------------------------------------------------|
Tap to rate this tab
 
# A B C D E F G H I J K L M N O P Q R S T U V W X Y Z