Nukeateen - Greebo tab

Tabbed by:Grunge Forever

Artist: Nukeateen
Song:   Greebo
Album:  Reginald's Revenge

http://myspace.com/nukeateen

This is Greebo from the band Nukeateen, featuring an awesome bass line and very angsty 
melody.
The guitar riff is fairly simple. This is the guitar tab, I'll do the bass seperatly! 
fun

(/) Slide Up  (\) Slide Down  (h) Hammer On  (p) Pull Off  (b) Bend (r) Release (v) Vibrato

Intro (play 4 times)

E|------------------------|
B|--3----3--0-------------|
G|--2----2--0--2----2--0--|
D|--0----0--0--2----2--0--|
A|-------------0----0--0--|
E|------------------------|

Verse/Pre-chorus/Post-chorus

E|------------------------|
B|--3----3--0-------------|
G|--2----2--0--2----2--0--|
D|--0----0--0--2----2--0--|
A|-------------0----0--0--|
E|------------------------|

Build Up

E|--------------------------------------------------------------|
B|--------------------------------------------------------------|
G|--------------------------------------------------------------|
D|--3--3--3--3--3--3--3--3----3--3----3--5--5--5----5--5--5--5--|
A|--3--3--3--3--3--3--3--3----3--3----3--5--5--5----5--5--5--5--|
E|--1--1--1--1--1--1--1--1----1--1----1--3--3--3----3--3--3--3--|


Chorus (x3)

E|----------------------------------------------|
B|------------------------3----3--3-------------|
G|------------------------2----2--2--2----2--2--|
D|--3----3--3--5----5--5--0----0--0--2----2--2--|
A|--3----3--3--5----5--5-------------0----0--0--|
E|--1----1--1--3----3--3------------------------|

Chorus last bar

E|-------------------------------------------------------|
B|-------------------------------------------------------|
G|------------------------7----5----2--------------------|
D|--3----3--3--5----5--5--7----5----2--------------------|
A|--3----3--3--5----5--5--5----3----0--------------------|
E|--1----1--1--3----3--3---------------------------------|

D           A            D          A
I'm sitting here and I'm waiting to see you,
D           A            D          A
I'm sitting here and I'm waiting to meet you,
D           A            D          A
I'm sitting here and I'm waiting to see you

Build Up

F           G
now...

Pre-chorus

D       A
I can't seem to,
D          A
They can't mean to,
D       A       D       A
Make me feel so fucking awful

Chorus

F     G         D       A
Why I help them I don't know,
F        G      D        A
I should really let them know,
F       G          D         A
I don't like them, they like me,
F        G      D   C    A
I should really let them see


Post-chorus

D     A
I'm a Meenie,
D     A
I'm a Greenie,
D     A
I'm a Weirdo,
D     A
I'm a Greebo
Tap to rate this tab
 
# A B C D E F G H I J K L M N O P Q R S T U V W X Y Z