Song name
# A B C D E F G H I J K L M N O P Q R S T U V W X Y Z

Nullset - Bong Hit tab

ARTIST: NULLSET
SONG: BONG HIT (hidden bonus track)
ALBUM: NULLSET

TUNING: CGCFAD

NOTE: b = bend
      h = hammer on
      p = pull off
      / = slide up
      \ = slide down

============================================================================

INTRO

D|-------------------------------|
A|-------------------------------|
F|-------------------------------|
C|-------------------------------| x3
G|-------------------------------|
C|----0-0-6p5-0-0-0-0h6p5-0h6----|

D|-------------------------------|
A|-------------------------------|
F|-------------------------------|
C|-------------------------------|
G|-------------------------------|
C|----0-0-6p5-0-0-0-0-12\--------|


VERSE

D|-------------------------------|
A|-------------------------------|
F|-------------------------------|
C|----0-0-6p5-0-0-0-0h6p5-0h6----| x12
G|----0-0-6p5-0-0-0-0h6p5-0h6----|
C|----0-0-6p5-0-0-0-0h6p5-0h6----|


CHORUS

D|--------------------------------------------------------------|
A|--------------------------------------------------------------|
F|--------------------------------------------------------------|
C|----6p5p0-6p5p0h3-0h3p0-3h5p3p0--6p5p0-6p5p0h3-0h3p0-3h5-5----| x2
G|----6p5p0-6p5p0h3-0h3p0-3h5p3p0--6p5p0-6p5p0h3-0h3p0-3h5-5----|
C|----6p5p0-6p5p0h3-0h3p0-3h5p3p0--6p5p0-6p5p0h3-0h3p0-3h5-5----|


VERSE

D|-------------------------------|
A|-------------------------------|
F|-------------------------------|
C|----0-0-6p5-0-0-0-0h6p5-0h6----| x12
G|----0-0-6p5-0-0-0-0h6p5-0h6----|
C|----0-0-6p5-0-0-0-0h6p5-0h6----|


CHORUS

D|--------------------------------------------------------------|
A|--------------------------------------------------------------|
F|--------------------------------------------------------------|
C|----6p5p0-6p5p0h3-0h3p0-3h5p3p0--6p5p0-6p5p0h3-0h3p0-3h5-5----| x4
G|----6p5p0-6p5p0h3-0h3p0-3h5p3p0--6p5p0-6p5p0h3-0h3p0-3h5-5----|
C|----6p5p0-6p5p0h3-0h3p0-3h5p3p0--6p5p0-6p5p0h3-0h3p0-3h5-5----|


BRIDGE

D|---------------------------|
A|---------------------------|
F|---------------------------|
C|---------------------------| x3
G|---------------------------|
C|----12\-0-0-0-0h5h6-0-0----|

D|---------------------------|
A|---------------------------|
F|---------------------------|
C|---------------------------|
G|---------------------------|
C|----12\-0-0-0-0h5h6-3/-----|


BASS INTERLUDE, THEN:

CHORUS

D|--------------------------------------------------------------|
A|--------------------------------------------------------------|
F|--------------------------------------------------------------|
C|----6p5p0-6p5p0h3-0h3p0-3h5p3p0--6p5p0-6p5p0h3-0h3p0-3h5-5----| x4
G|----6p5p0-6p5p0h3-0h3p0-3h5p3p0--6p5p0-6p5p0h3-0h3p0-3h5-5----|
C|----6p5p0-6p5p0h3-0h3p0-3h5p3p0--6p5p0-6p5p0h3-0h3p0-3h5-5----|


OUTRO

D|-------------------------------|
A|-------------------------------|
F|-------------------------------|
C|----0-0-6p5-0-0-0-0h6p5-0h6----| x4
G|----0-0-6p5-0-0-0-0h6p5-0h6----|
C|----0-0-6p5-0-0-0-0h6p5-0h6----|

D|-------------------------------|
A|-------------------------------|
F|-------------------------------|
C|-------------------------------|
G|----0-0-6p5-0-0-0--------------|
C|----0-0-6p5-0-0-0-----12\------|
                        ..........pick scrape/slide


============================================================================

An absolutely awesome song that is fun to play along to!

If you have any questions regarding any of my tabs then please feel free to
contact me at: killboytv@yahoo.com.au
Thanks folks.
Tap to rate this tab
# A B C D E F G H I J K L M N O P Q R S T U V W X Y Z