Song name
# A B C D E F G H I J K L M N O P Q R S T U V W X Y Z

Number Girl - Ooatari No Kisetsu tab

Help us improve GuitareTab! Take a short survey!
New artist, so links: http://www.toshiba-emi.co.jp/domestic/artists/numbergirl/
http://www.musicwhore.org/artists/artist.php?artist=144

One of the best bands of the last decade.  Best band to come out of japan possibly ever.

Rhythm Guitar:
---------------
---------------
-----xx-x9-99--
-9--9xx-x9-99--  X3, then
-9--9xx-x7-77--  
-7--7----------

-------------------------------------------
-------------------------------------------
-------------------------------------------
-------------------------------------------
-9-9-9-1111-121112-------------------------
-7-7-7-9-9--109-10-------------------------



2nd guitar:
-------------------------------------------
-12--12------------------------------------
--------13-11------------------------------
---------------12-11----13-----------------
---------------------14----11-14-----------
-------------------------------------------

Listen to the song to get it down, I've tried to translate the rhythm into
the tab, but that's always somewhat hard to do.  :)
Related for Ooatari No Kisetsu tab