Song name
# A B C D E F G H I J K L M N O P Q R S T U V W X Y Z

Number One Fan - Its Happening tab

First off, all the tabs for any NOF song on this wensite, and any other, are terrible. Mine are right.

Standard Tuning RELEVANT TO
Capo Second Fret

Intro:
|-0--------------------------------------------------------------------|
|-2--------------------------------------------------------------------|
|-2--------------------------------------------------------------------|
|-2--------------------------------------------------------------------|
|-0--------------------------------------------------------------------|
|----------------------------------------------------------------------|
Strummed Consistantly.

Verse:
|-0--------------------------------------------------------------------|
|-2--------------------------------------------------------------------|
|-2--------------------------------------------------------------------|
|-2--------------------------------------------------------------------|
|-0--------------------------------------------------------------------|
|----------------------------------------------------------------------|
Same deal as intro

PreChorus:
|----------------------------------------------------------------------|
|---------0------------------------------------------------------------|
|-----2-----2---2------------------------------------------------------|
|---2---2-----2--------------------------------------------------------|
|-0--------------------------------------------------------------------|
|----------------------------------------------------------------------|
You could not wait one more day... it's happening.

Second verse is the same, then it's the bridge...

Bridge:
|----------------------------------------------------------------------|
|----------------------------------------------------------------------|
|-88888888-66666666-22222222-------------------------------------------|
|-xxxxxxxx-xxxxxxxx-xxxxxxxx-------------------------------------------|
|-66666666-44444444-00000000-------------------------------------------|
|----------------------------------------------------------------------|

|----------------------------------------------------------------------|
|----------------------------------------------------------------------|
|-88-9-8---------------------------------------------------------------|
|-xx-x-x---------------------------------------------------------------|
|-66-7-6---------------------------------------------------------------|
|----------------------------------------------------------------------|

Ending:
|----------------------------------------------------------------------|
|---------0------------------------------------------------------------|
|-----2-----2---2------------------------------------------------------|
|---2---2-----2--------------------------------------------------------|
|-0--------------------------------------------------------------------|
|----------------------------------------------------------------------|
You could not wait one more day... it's happening.



That's about it. Message me with any questions!
Tap to rate this tab
# A B C D E F G H I J K L M N O P Q R S T U V W X Y Z