Song name
# A B C D E F G H I J K L M N O P Q R S T U V W X Y Z

Number One Gun - The Different Ones tab

THE DIFFERENT ONES - Number One Gun
Tabbed by: T. After Death L.

Tuning: Standard

Verse
e|----3---2--0---------------|
B|----3---3--3---------------|
G|----0---0--0----------0----|
D|--------------------4---4--|
A|-----------3----3/5--------|
E|--0---0--------------------|

Chorus
e|--------3----------3-------------3------------3------|
B|--------3----------3-------------3------------3------|
G|------0------------0-------------0----------0--------|
D|--0h2-----2p0-------------------------------------0--|
A|--------------h3-3------3p0-h3-3------3-3/5----------|
E|-----------------------------------------------------|

Bridge
e|-----3--------3--------3----------0-----|
B|-----3--------3--------3----------3-----|
G|-----0--------0--------0--------0-------|
D|----------------------------------------|
A|-0-0----0-0-0----0-3-3----3-3/5------5--|
E|----------------------------------------|

Song order:
Verse x8
Chorus x3
Verse x6
Chorus x4
Bridge x3
Verse x2
Chorus x4
Tap to rate this tab
# A B C D E F G H I J K L M N O P Q R S T U V W X Y Z