Guitaretab - guitar tabs
Song name
# A B C D E F G H I J K L M N O P Q R S T U V W X Y Z

Nume - Dont Wanna Go Home tab

     Intro/Clean
e---------------------------------------------------------------
b---------------------------------------------------------------
g---------------------------------------------------------------
d--0-0-0-0-3-3-3-5----------------------------------------------x4
a--0-0-0-0-3-3-3-3----------------------------------------------
d--0-0-0-0-3-3-3-3----------------------------------------------

 pm.............

   Distortion
e---------------------------------------------------------------
b---------------------------------------------------------------
g---------------------------------------------------------------
d---0-0-0-0-3-3-3-5---------------------------------------------x4
a---0-0-0-0-3-3-3-3---------------------------------------------
d---0-0-0-0-3-3-3-3---------------------------------------------

   Verse/distortion
e---------------------------------------------------------------
b---------------------------------------------------------------
g---------------------------------------------------3h5p3p0-----
d-----3-------3-3-3-3-3-3----0--------0-0-0-0-0-0-----------3p0-x4
a-----3-------3-3-3-3-3-3----0--------0-0-0-0-0-0---------------
d-----3-------3-3-3-3-3-3----0--------0-0-0-0-0-0---------------
              pm..........           pm..........

   Chorus/distortion
e---------------------------------------------------------------
b---------------------------------------------------------------
g---------------------------------------------------------------
d---xx-7-7-777---0-00-000-xx---7-7-777-3-3-33-xx--22------------x2
a---xx-5-5-555---0-00-000-xx---7-7-777-3-3-33-xx--22------------
d---xx-5-5-555---0-00-000-xx---7-7-777-3-3-33-xx--22------------

[ Tab from: http://www.guitaretab.com/n/nume/31251.html ]
     Verse/distortion
e---------------------------------------------------------------
b---------------------------------------------------------------
g---------------------------------------------------3h5p3p0-----
d-----3-------3-3-3-3-3-3----0--------0-0-0-0-0-0-----------3p0-x4
a-----3-------3-3-3-3-3-3----0--------0-0-0-0-0-0---------------
d-----3-------3-3-3-3-3-3----0--------0-0-0-0-0-0---------------
              pm..........           pm..........

   Chorus/distortion
e-------------------------------------------------------
b-------------------------------------------------------
g-------------------------------------------------------
d---xx-7-7-777---0-00-000-xx---7-7-777-3-3-33-xx--22----x2
a---xx-5-5-555---0-00-000-xx---7-7-777-3-3-33-xx--22----
d---xx-5-5-555---0-00-000-xx---7-7-777-3-3-33-xx--22----


    distortion
e-------------------------------------------------------
b-------------------------------------------------------
g-------------------------------------------------------
d-------------------------------------------------------
a-------------------------------------------------------
d---0h2h3p2p0--0h203p2p0--0h2h3p2p0--0h2h3p2p0--xx------


    Distortion
e-------------------------------------------------------
b-------------------------------------------------------
g-------------------------------------------------------
d---0h2h3p2p0--0h203p2p0--0h2h3p2p0--0h2h3p2p0--xx------x3
a---0h2h3p2p0--0h203p2p0--0h2h3p2p0--0h2h3p2p0--xx------
d---0h2h3p2p0--0h203p2p0--0h2h3p2p0--0h2h3p2p0--xx------





   Chorus-outro/disortion
e-------------------------------------------------------
b-------------------------------------------------------
g-------------------------------------------------------
d---xx-7-7-777---0-00-000-xx---7-7-777-3-3-33-xx--22----x4
a---xx-5-5-555---0-00-000-xx---7-7-777-3-3-33-xx--22----
d---xx-5-5-555---0-00-000-xx---7-7-777-3-3-33-xx--22----

if there is any corrections e-mail me at got_the_life22@hotmail.com
Related for Dont Wanna Go Home tab
×
Best way to learn
"Dont Wanna Go Home"