Song name
# A B C D E F G H I J K L M N O P Q R S T U V W X Y Z

Numeriklab - Ncis Main Theme tab

http://www.numeriklab.com/

Song: NCIS Main Theme
Artist: Numeriklab
Tabbed by: Tye1989

Hey there!
This is the main theme tune to the show NCIS, the opening melody is correct, the rest 
pretty unsure on and I think is a little to advanced for me to try and figure out by ear, 
you have any suggestions or complaitns please send them to Masamune12003@gmail.com
To figure out the timing you'll have to listen to the song (it's on youtube), a lot of 
I don't think can be recreated on the guitar but maybed that's just me.
I will look at this a bit more and see what I can do but seen's as there was nothing up 
all for NCIS I though you might like at least what I could get.
Cheers!

(Main bit, 100% correct)
-----------------------------------------------------------|
-------------------11--------------------------------------|
-10-13-12-10-13-12----13-12-10----13-12-10-8-10---8-6------|
-------------------------------11---------------8----------|
-----------------------------------------------------------|
-----------------------------------------------------------|

(Chords and sutff, no idea)
-----------15-16----15-16-17-19-20-------------------------|
-----------------------------------------------------------|
--------14-------14----------------------------------------|
-8-8-6-8---------------------------8-8-6-8-----------------|
-8-8-6-8---------------------------8-8-6-8-----------------|
-----------------------------------------------------------|


----15-16----15-16-17-19-20--------------------------------|
-----------------------------------------------------------|
-14-------14-----------------------------------------------|
-----------------------------------------------------------|
-----------------------------------------------------------|
-----------------------------------------------------------|


Tye1989
Tap to rate this tab
# A B C D E F G H I J K L M N O P Q R S T U V W X Y Z