Numeriklab - Ncis Main Theme tab

I don't think it can get anymore accurate than this...but then again, I've been wrong before... XD

ENJOY!

e|-------------------------------------------------------------------------|
B|----9-8------9-8-11-9-8--------9--8--------------------------------------|
G|------------------------10----------10-8--10-----8-----------------------|
D|-10-------10---------------11-----------------8----11-10-----------------|
A|-------------------------------------------------------------------------|
E|-------------------------------------------------------------------------|

e|--------8----------8-11-13-16--------------------------------------------|
B|-----11---------11-------------------------------------------------------|
G|-------------------------------------------------------------------------|
D|-11----------8-----------------------------------------------------------|
A|-------------------------------------------------------------------------|
E|-------------------------------------------------------------------------|

I've posted this before, I know...but at that time I wasn't logged on. I'm so sorry  
Tap to rate this tab
 
# A B C D E F G H I J K L M N O P Q R S T U V W X Y Z