Numeriklab - Ncis Main Theme tab

Hey guys, this is my first tab, and i wanted to get it right, because this show is too amazing!

I tabbed it off a tutorial vid for piano on youtube, then I listened to it while I 
it, and it sound about right.

this is the basic theme, you can add notes and stuff pretty much anywhere you like i guess.

     Fm                    Dmaj                  Emaj     F
------------------------------------------------------------------|
------------------------------------------------------------------|
----0-1-0------1-0-3-1-0-------------1----0-----------------------|
--------------------------3-----------------3-1-3------1----------|
--3---------3--------------------4----------------1------4--3-----|
------------------------------------------------------------------|

D          E                Fm
----------------------1--4--------------------------------------------|
----------------1--4--------------------------------------------------|
----3-5------3--------------------------------------------------------|
----------1-----------------------------------------------------------|
-4--------------------------------------------------------------------|
----------------------------------------------------------------------|


Chords
Fm	Dmaj	Emaj
1	2	0
1	3	0
1	2	1
3	0	2
3	x	2
1	x	0
Tap to rate this tab
 
# A B C D E F G H I J K L M N O P Q R S T U V W X Y Z