Guitaretab - guitar tabs
Song name
# A B C D E F G H I J K L M N O P Q R S T U V W X Y Z

Nuno Mindelis - Monkey Joke tab

TOCA COM P.M. QUE EU ACHEI QUE FICO MAIS LEGAL E MAIS PARECIDO
Obs: muda a chavinha seletora dos captadores pra cima que fica mais blues

|-----|------------------------------------------------------------------------|
|-----|----7----------------------7--------------------------------------------|
|-----|-5--7--5h6-----------------7--5h6----------------7-5h6------------------| REPETE UMAS 2 VEZES
|-12\-|-5---------7p5----5---5h7---------7p5---5---5h7--------7p5---5---5h7-5--| S QUE SEM OS 12\
|-12\-|----------------7---7-----------------7---7----------------7---7--------|               12\
|-----|------------------------------------------------------------------------|

[ Tab from: http://www.guitaretab.com/n/nuno-mindelis/182789.html ]
|-----------------------------------------------------------------------|
|----12-----------------------------12----------------------------------|
|-10-12--10-11----------------------12--10-11---------------------------| ESSE DAQUI  S UMA VEZ
|-10-----------12-10----10----10-12-----------12-10----10----10-12-10---| DA VOLTA AO PRIMEIRO RIFF
|--------------------12----12-----------------------12----12------------|
|-----------------------------------------------------------------------|

QUANDO FICAR A BETERIA E AS PARADINHAS BATENDO
|---7----
|---7h8--
|---7----
|---9----  da uma batidinha nessa nota
|---7----  fica legal no lugar do fundo musical
|-7------

O RESTO  O SOLO NE...
A  DIFICIL
MAS O INICIOZINHO AT QUE  FACIL
FICA MEIO QUE ISSO
|------------------------------------|
|-13-10-13b--16br-13-10--10-8--------|
|-----------------------------9-7----|
|---------------------------------10-|
|------------------------------------|
|------------------------------------|

Cifrado por Lucas Martins

www.nunomindelis.com.br