Song name
# A B C D E F G H I J K L M N O P Q R S T U V W X Y Z

Nursery Rhyme - I Am The Music Man tab

---------------------------------------------------------------------------|
---------------------------------------------------------------------------|
--12-------------12----12----12------------12-12-12-14-12---12-12-12-14-12-|
-----14-14-14-14----------15----15-14-12-----------------------------------|
---------------------------------------------------------------------------|
---------------------------------------------------------------------------|

---------------------------------------------------------------------------|
---------------------------------------------------------------------------|
--12-12-12-12------------------------------12------------------------------|
--------------14-12------14-14-14-14-14-14-----15-15-12--14-14-------------|
--------------------15-----------------------------------------15----------|
---------------------------------------------------------------------------|

-----------------------------------------|
-----------------------------------------|
--------------------12-------------------|
--14-14-14-14-14-14------15-15-12--------|
----------------------------------14-15--|
-----------------------------------------|
Tap to rate this tab
# A B C D E F G H I J K L M N O P Q R S T U V W X Y Z