Song name
# A B C D E F G H I J K L M N O P Q R S T U V W X Y Z

Nursery Rhyme - I Have A Little Dreidel tab

-----------------------------------------------------------------------------|
-----------------------------------------------------------------------------|
-----------------------------------------------------------------------------|
-----------------------------------------------------------------------------|
---------------9---------------9-12-12-10-9----------------------------------|
---10-10-12-12---10-------------------------12-------------------------------|


I have a little dreidel        I made it out of clay


-----------------------------------------------------------------------------|
-----------------------------------------------------------------------------|
-----------------------------------------------------------------------------|
-----------------------------------------------------------------------------|
-------------------------------12-10-9---------------------------------------|
---9-9-9-10-12-9-----------------------12-10---------------------------------|


and when it's dry and ready    then dreidel I shall play


-----------------------------------------------------------------------------|
-----------------------------------------------------------------------------|
-----------------------------------------------------------------------------|
-----------------------------------------------------------------------------|
---9-12-9-12-9-12-9------------9-12-12-10-9----------------------------------|
--------------------------------------------12-------------------------------|


Oh dreidel dreidel dreidel     I made it out of clay


-----------------------------------------------------------------------------|
-----------------------------------------------------------------------------|
-----------------------------------------------------------------------------|
-----------------------------------------------------------------------------|
------10----10----10-----------10-12-10-9------------------------------------|
---12----12----12----12-------------------12-10------------------------------|


Oh dreidel dreidel dreidel     My dreidel I shall play
Tap to rate this tab
 
# A B C D E F G H I J K L M N O P Q R S T U V W X Y Z