Song name
# A B C D E F G H I J K L M N O P Q R S T U V W X Y Z

Nx Zero - Tarde Demais tab

NX Zero - Tarde Demais

Tuning: Half-Step Down (Eb Ab Db Gb Bb eb)

Intro

eb|-------------------------------------------------------------------|
Bb|-------------------------------------------------------------------|
Gb|----4-----4---------4-----4---------4-----4---------4-----4-----4--|
Db|------6-----6---6-----6-----6---6-----6-----6---6-----6-----6------|
Ab|----------------------------------4-----4-----4---4-----4-----4----|
Eb|--5-----5-----5---5-----5-----5------------------------------------|

eb|-------------------------------------------------------------------|
Bb|-------------------------------------------------------------------|
Gb|----4-----4---------4-----4---------4-----4---------4-----4--------|
Db|------6-----6---6-----6-----6---6-----6-----6---6-----6-----6---6--|
Ab|-------------------------------------------------------------------|
Eb|--5-----5-----5---5-----5-----5---7-----7-----7---7-----7-----7----|

Verse 1

    G#       A#      B#      B#
eb|----0-0-0---0-0-0---0-0-0---0-0-0--|
Bb|----0-0-0---0-0-0---0-0-0---0-0-0--| 
Gb|--2-------4-------6-------6--------|(4x)
Db|--2-------4-------6-------6--------|
Ab|--0-------2-------4-------4--------|
Eb|-----------------------------------|

Às vezes perco a noção do tempo
O mundo gira e eu não vejo
As horas passam pra mim e pra você (e nada muda)
Me olho no espelho e não consigo enteder

Pre-Chorus pt.1
                                      Guitar 2
eb|------------------------------|     eb|--0--| <- Play through the entire Pre-Chorus
Bb|------------------------------|     Bb|--0--|
Gb|--2--4--6----------4--6-------|     Gb|-----|
Db|--2--4--6--6s7--7--4--6--6s7--|     Db|-----|
Ab|--0--2--4--6s7--7--2--4--6s7--|     Ab|-----|
Eb|-----------4s5--5--------4s5--|     Eb|-----|

Um dia, um erro
Um final pra nós dois
Seu olhar me diz adeus

Pre-Chorus pt.2

eb|-----------------------------|
Bb|-----------------------------|
Gb|--2--4-----6--4--2--4--------|
Db|--2--4--6--6--4--2--4--6--7--|
Ab|--0--2--6--4--2--0--2--6--7--|
Eb|--------4--------------4--5--|

O que passou, passou e não vai mais voltar
E já não há nada que você possa falar

Chorus

eb|--------------|
Bb|--------------|
Gb|--------6--2--|(2x)
Db|--2--4--6--2--|
Ab|--2--4--4--0--|
Eb|--0--2--------|

Não, Parece que foi tudo em vão
Sei, que dessa vez não fui eu que errei

Solo

While the lead guitar plays the solo, the rhythm one plays this:

eb|-----0--0--0-----0--0--0-----0--0--0-----0--0--0--|
Bb|-----0--0--0-----0--0--0-----0--0--0-----0--0--0--|
Gb|--2-----------4-----------6-----------6-----------|
Db|--2-----------4-----------6-----------6-----------|
Ab|--0-----------2-----------4-----------4-----------|
Eb|--------------------------------------------------|

Verse 2

    G#       A#      B#      B#
eb|----0-0-0---0-0-0---0-0-0---0-0-0--|
Bb|----0-0-0---0-0-0---0-0-0---0-0-0--| 
Gb|--2-------4-------6-------6--------|(4x)
Db|--2-------4-------6-------6--------|
Ab|--0-------2-------4-------4--------|
Eb|-----------------------------------|

Às vezes fico em silêncio
E meus dias são iguais
O tempo passa mas eu fico aqui (e nada muda)
Me olho no espelho e não consigo entender

Pre-Chorus

eb|-----------------------------|
Bb|-----------------------------|
Gb|--2--4-----6--4--2--4--------|
Db|--2--4--6--6--4--2--4--6--7--|
Ab|--0--2--6--4--2--0--2--6--7--|
Eb|--------4--------------4--5--|

O que passou, passou e não vai mais voltar
E já não há nada que você possa falar

Chorus

Chorus

eb|--------------|
Bb|--------------|
Gb|--------6--2--|(2x)
Db|--2--4--6--2--|
Ab|--2--4--4--0--|
Eb|--0--2--------|

Não, Parece que foi tudo em vão
Sei, que dessa vez não...

Bridge

eb|--------------|
Bb|--------------|
Gb|--2--4--6--9--|(2x)
Db|--2--4--6--9--|
Ab|--0--2--4--7--|
Eb|--------------|

Guitar 2

eb|-----------------|
Bb|-----------------|
Gb|--9--11--13--16--|(2x)
Db|--x--x---x---x---|
Ab|--7--9---11--14--|
Eb|-----------------|



Por mais que eu tente relevar e esquecer os erros
Os sonhos sempre acabam sendo o mesmo pesadelo
De que adianta você me dizer que se importa
Se o que tivemos ficou apenas na memória

Bridge End
     x  x  x    <- Palm muted
eb|-------------|
Bb|-------------|
Gb|--2--4--6--6-|
Db|--2--4--6--6-|
Ab|--0--2--4--4-|
Eb|-------------|

Chorus

eb|--------------------------------|
Bb|--------------------------------|
Gb|--------------6--2--------6--2--|(1x)
Db|-----------4--6--2--2--4--6--2--|
Ab|-----------4--4--0--2--4--4--0--|
Eb|--Silence--2--------0--2--------|

eb|--------------------------------------|
Bb|--------------------------------------|
Gb|--------6--2--(2x)--------6--9--(2x)--|
Db|--2--4--6--2--------2--4--6--9--------|
Ab|--2--4--4--0--------2--4--4--7--------|
Eb|--0--2--------------0--2--------------|

Não, Parece que foi tudo em vão
Sei, que dessa vez não fui eu que errei
Não, Parece que foi tudo em vão
Sei, que dessa vez não fui eu que errei
Ow ow, ow ow...
Que dessa vez não fui eu que errei

Finish the song playing:

eb|-----|
Bb|-----|
Gb|-----|(4x)
Db|--2--|
Ab|--2--|
Eb|--0--|


The End.
Tap to rate this tab
# A B C D E F G H I J K L M N O P Q R S T U V W X Y Z