Song name
# A B C D E F G H I J K L M N O P Q R S T U V W X Y Z

Nxzero - Gritos Do Silncio tab

Intro: D5  A5  B5  G5

e|---------------------------|
b|---------------------------|
g|-7/9--7-6-7----7-7-7-7-7---| (2x)
d|-x-x--x-x-x----7-7-7-7-7---|
a|-5/7--5-4-5----5-4-5-4-4---|
E|---------------------------|

Depois a primeira guitarra faz a introduo e a segunda faz isso aqui

e|-------------------------------------------|
b|-------------------------------------------|
g|-7-7-7---9-9-9---14-14-14---7-9-11-12-14---| (2x)
d|-x-x-x---x-x-x---x--x--x----x-x-x--x--x----|
a|-5-5-5---7-7-7---12-12-12---5-7-9--10-12---|
E|-------------------------------------------|

Riff 1                                           Riff 2

e|--------------------------                 e|----------------|
b|--------------------------                 b|----------------|
g|--5--4--9--5--4-5--(2x)---                 g|--7-7-7-6-7-9---|
d|--------------------------                 d|--7-7-7-7-7-x---|
a|--------------------------                 a|--5-5-5-5-5-7---|
E|--------------------------                 E|----------------|

A segunda guitarra fica s nisso

e|------|
b|------|
g|--7---|  Depois da parada do comeo quando entra a bateria faz isso.
d|--x---
a|--5---|
E|------|

Tudo o que nos faz sentir,
                    Riff 1
Agora  quem ns somos,
                                       D5
mas por fora, talvez algo sem sentido,
                        A5
como a mscara onde estou
                  B5
escondido ou talvez,

          G

e|---------------------------------------|
b|---------------------------------------|
g|--12-12-12-12---14-14--12--11/12/11----|
d|--x--x--x--x----x--x---x---x--x--x-----|
a|--10-10-10-10---12-12--10--9/10/-9-----|
E|---------------------------------------|

um ser perdido

A5                            B5
O mundo que conhecemos de cor,
                           G5
corao que insiste em bater,
                D5         Riff 2
muito menos nos faro crer,
A5                             B5
que tudo o que ouvimos so s risos,
                  G5
que um dia nos faro entender
      A5
nos faro entender

Agora a segunda guitarra fica assim no Refro

Riff 3
e|------------------------------------------------------|
b|------------------------------------------------------|
g|-14-14-14-14---9-9-9-9---11-11-11-11--7-9-11-12-14----|
d|-x--x--x--x----x-x-x-x---x--x--x--x---x-x-x--x--x-----|
a|-12-12-12-12---7-7-7-7---9--9--9--9---5-7-9--10-12----|
E|------------------------------------------------------|

Refro:

D5                       A5
Entre os sentimentos, lamentos
                          B5
Fora do tempo, jogados ao vento
                    G5
Palavras ao p do ouvido, Gritos do silncio!!!
D5                       A5
Entre os sentimentos, lamentos
                           B5
Fora do tempo, jogados ao vento
    G5
talvez eu possa sentir!!!


Solo: D5  A5  B5  G5

                                 (2x)
e|----------------------------------------------------------------------------|
b|----------------------------------------------------------------------------|
g|-7-7---14-12-11-12-11--9-9---14-12-11-9-11--7-7---14-12-11-12---11-12-11-14-|
d|-x-x---x--x--x--x--x---x-x---x--x--x--x-x---x-x---x--x--x--x----x--x--x--x--|
a|-5-5---12-10-9--10-9---7-7---12-10-9--7-9---5-5---12-10-9--10---9--10-9--12-|
E|----------------------------------------------------------------------------|


Depois desse solo faz essa parte mais lenta.


e|---------------------------------------------------------------------------|
b|---------------------------------------------------------------------------|
g|-----6------6-7-------7---------------4-------------------------7---7-7----|
d|--7-----7----7----7-----7---------5------(2x)---4---4-5-7---4-5-7---7-7----|
a|-5-5---5-0-0-------------------5----------------4---4-5-7---4-5-5---5-5----|
E|----------------7---7-----7--3---3--3-----------2---2-3-5---2-3------------|

e a outra guitarra com esse riff abaixo:

e|-------------------------------------------------------------------------|
b|-------------------------------------------------------------------------|
g|--7-7-7-7--9-9-9--11-11-11--9-9-9/11/9--7-7-7--9-9-9--6-6-6--------------|
d|--x-x-x-x--x-x-x--x--x--x---x-x-x-x--x--x-x-x--x-x-x--x-x-x--5-5--4-4----|
a|--5-5-5-5--7-7-7--9--9--9---7-7-7/9-/7--5-5-5--7-7-7--4-4-4--5-5--4-4----|
E|-------------------------------------------------------------3-3--2-2----|


Agora entra o Refro com a segunda guitarra fazendo o Riff 3 e depois o solo e
depois a musica acaba.
e|------------------|
b|------------------|
g|--7-7-7/9-7-6-7---|
d|--x-x-x-x-x-x-x---|
a|--5-5-5/7-5-4-5---|
E|------------------|
Tap to rate this tab
# A B C D E F G H I J K L M N O P Q R S T U V W X Y Z