Song name
# A B C D E F G H I J K L M N O P Q R S T U V W X Y Z

Nxzero - Iluso tab

[INTRODUÇÃO]

||Guitarra 1 (distorcida)

Parte 1
e|--------------------------------------------------------|
B|--------------------------------------------------------|
G|--------------------------------------------------------|
D|--------------------------------------------------------|
A|--1/--5-5-5-5-5-5-5-5----------1/-3-3-3-3-3-3-3-3-------|
E|--------------------------------------------------------|

Parte 2
e|--------------------------------------------------------|
B|--------------------------------------------------------|
G|--------------------------------------------------------|
D|--------------------------------------------------------|
A|--1/--5-5-5-5-5-5-5-5-----------1/-3-3-3-3-3-3-3-3------|
E|--------------------------------------------------------|

||Guitarra 2
OBS: é "mais ou menos" isso, ouça a música para entender.

Parte 1
e|----------------------------------------------------------|
B|----------------------------------------------------------|
G|----------------------------------------------------------|
D|----------------------------------------------------------|
A|------5------5----5----1---1--3-------5---5--5---5------5-|
E|-6--6---6--6---6-----0---0---0---8--8---8--8---8---8--8---|

Parte 2
e|---------------------------------------------------------|
B|---------------------------------------------------------|
G|---------------------------------------------------------|
D|------------------------0--0--0------------------0--0--0-|
A|-10-10--10-10--10-10--7--7--7---8-8-8/-10-10-8-7--7--7---|
E|---------------------------------------------------------|

Dm           Bb            C
a vida é feita das escolhas (que fazemos)
Dm               Bb       C
com quem NÃO escolhemos ser

Dm             Bb              C
é uma piada que NÃO tem mais graça
Dm                Bb             C
e eu NÃO vejo ninguém sorrindo aqui


[REFRÃO]
===============================
F
Nãooooo
C
seiiiii
       Dm        Bb            C
se por mal minha vida eu perdi

F
sóóóóó
C
seiiiii
        Dm       F            Bb      C
que a verdade insiste em me iludir

=================================


[Toca quase a mesma coisa que a introdução]

Solo tocado no meio dos versos (ouça música para perceber)

e|---------15--|
B|-----13------|
G|-14----------|
D|-------------|
A|-------------|
E|-------------|
Dm              Bb       c
quando te achei comecei (a me perder)
Dm          Bb         C
olha quanta paixão nos perdemos
Dm              Bb              C
e de frente para os abismos de ilusões
Dm             Bb             C
mergulhar até onde restar-lhe fôlego

[REFRÃO]
===============================
F
Nãooooo
C
seiiiii
       Dm        Bb            C
se por mal minha vida eu perdi

F
sóóóóó
C
seiiiii
        Dm       F            Bb      C
que a verdade insiste em me iludir

=================================
||Guitarra 1
e|------------------------------------------------------------|
B|------------------------------------------------------------|
G|------------------------------------------------------------|
D|------------------------------------------------------------|
A|--1/--5-5-5-5-5-5-5-5----1--1--1--1--1/-3-3-3-3-3-3-3-3-----|
E|-----------------------0--0--0--0---------------------------|

e|------------------------------------------------------------|
B|------------------------------------------------------------|
G|------------------------------------------------------------|
D|------------------------------------------------------------|
A|--1/--5-5-5-5-5-5-5-5----------------1/-3-3-3-3-3-3-3-3-----|
E|------------------------------------------------------------|

Repete 2x
e|------------------------------------------------------------|
B|------------------------------------------------------------|
G|------------------------------------------------------------|
D|------------------------------------------------------------|
A|--1/--5-5-5-5-5-5-5-5----1--1--1--1--1/-3-3-3-3-3-3-3-3-----|
E|-----------------------0--0--0--0---------------------------|


||Guitarra 2
Fica fazendo isso direto nessa parte.

e|--------8-|
B|-----6----|
G|--7-------|
D|----------|
A|----------|
E|----------|

[REFRÃO]

(F, C, Dm, Bb, C)

Ohhhhh ohhhhh  ohhhh

Termina com o Riff principal com uma variação
Tap to rate this tab
# A B C D E F G H I J K L M N O P Q R S T U V W X Y Z