Nyctinasty - Camping Indoors tab

Nyctinasty
Camping Indoors
Camping Indoors
2010
Submitted by: paramore_fans@yahoo.com

Key: D


Guitar 1:
         D                  G
e|-----------------|------------------|
B|-----------------|------------------|
G|---------2-------|---------4--------|
D|---0---0-----0---|---0---0-----0----| x4
A|-4---4-----4---4-|-4---4-----4----4-|
E|-----------------|------------------|
         x2                 x2

Guitar 2: Effects pedal, tapping
e|-17-9h10h17p9h10h17p9h10h17-|-19-9h10h19p9h10h19p9h10h19-|
B|----------------------------|----------------------------|
G|----------------------------|----------------------------|
D|----------------------------|----------------------------| x2
A|----------------------------|----------------------------|
E|----------------------------|----------------------------|
               x2                            x2

Guitar 1:
   F#m           G                 D
e|------|-----------------|-----------------|
B|------|-----------------|-----------------|
G|------|-----------------|---------2-------|
D|------|---------4-------|---0---0-----0---|
A|------|---0---0-----0---|-5---5-----5---5-|
E|------|-3---3-----3---3-|-----------------|
                 x4                 x4

   F#m                  G
e|------|-------------------------------|
B|------|-------------------------------|
G|------|-----------------------0-------|
D|------|---------4---------------4-----|
A|------|---0---0-----0---0---0-----5---|
E|------|-3---3-----3---3---3---------3-|
                       x2

           D
e|-----------------|
B|-----------------|
G|---------2-------|
D|---0---0-----0---| x6
A|-5---5-----5---5-|
E|-----------------|


Guitar 2:
e|-2h5p2h5p2h5p2h5-|-17-9h10h17-9h10h17-9h10h12-|
B|-----------------|----------------------------|
G|-----------------|----------------------------|
D|-----------------|----------------------------| x2
A|-----------------|----------------------------|
E|-----------------|----------------------------|


Both Guitars:
  F#m      G       F#m   D
e|---|-----------|-----|---|
B|---|-----------|-----|---|
G|---|-----------|-----|-7-|
D|-4-|-5-5--5--5-|-4-4-|-7-|
A|-4-|-5-5--5--5-|-4-4-|-5-|
E|-2-|-3-3--3--3-|-2-2-|---|


Then the beat will switch from standard 4/4 to 3/4


Guitar 1:
       Em            F#m                  G
e|-------------|-------------|-------------------------|
B|-------------|-------------|-------------------------|
G|-------0-----|-------2-----|-------0-----2-0---0-----|
D|-----2---2---|-----4---4---|-----0---0-------4---4-0-| x2
A|---2-------2-|---4-------4-|---2-------2-------------|
D|-0-----------|-2-----------|-3-----------------------|


Guitar 2:
e|-2--5----------------|
B|-------3--5----------|
G|---------------------|
D|-------------4--5--7-|
A|---------------------|
E|---------------------|


Guitar 1: x2
           G                    A
e|-------------------|--------------------|
B|-------------------|--------------------|
G|-------------------|--------------------|
D|-5-5--5--5-5--5--5-|-7-7--7--7-7--7---7-|
A|-5-5--5--5-5--5--5-|-7-7--7--7-7--7---7-|
E|-3-3--3--3-3--3--3-|-5-5--5--5-5--5---5-|
          x2

          Bm
e|-------------------|
B|-------------------|
G|-4-4--4--4-4--4--4-|
D|-4-4--4--4-4--4--4-|
A|-2-2--2--2-2--2--2-|
E|-------------------|
          x2

        C
e|-------------|
B|-------------|
G|-5-5-5-5-5-5-|
D|-5-5-5-5-5-5-|
A|-3-3-3-3-3-3-|
E|-------------|
        x4


Guitar 2:
e|-5-3-2-3-2---|
B|-----------3-|
G|-------------|
D|-------------| x16
A|-------------|
E|-------------|


then the beat will change back from 3/4 to standard 4/4

Guitar 1:
                 G                              A
e|------------------------------|------------------------------|
B|------------------------------|------------------------------|
G|------------------------------|-------5------5------5--------|
D|-------4------4------4--------|------------------------------|
A|---0------0------0------0---0-|---0------0------0------0---0-|
E|-3---3------3------3------3---|-5---5------5------5------5---|

                 Bm                            C#m
e|------------------------------|------------------------------|
B|------------------------------|------------------------------|
G|-------2------2------2--------|-------4------4------4--------|
D|---0------0------0------0---0-|---2------2------2------2---2-|
A|-2---2------2------2------2---|-4---4------4------4------4---|
E|------------------------------|------------------------------|


Guitar 2: Effects
e|--------17--14----17-----|
B|-15--17--------12-----12-|
G|-------------------------|
D|-------------------------|
A|-------------------------|
E|-------------------------|


Both Guitars:
  F#m         G         F#m   D
e|---|----------------|-----|---|
B|---|----------------|-----|---|
G|---|----------------|-----|-7-|
D|-4-|-5-5--5--5-5--5-|-4-4-|-7-|
A|-4-|-5-5--5--5-5--5-|-4-4-|-5-|
E|-2-|-3-3--3--3-3--3-|-2-2-|---|


then

Guitar 1:
                 D                         E
e|---------------------------------|----------------|
B|-2h3p2h3p2h3p2h3p2h3p2h3p2h3p2h3-|----------------|
G|---------------------------------|-2h4--4--2h4--4-|
D|---------------------------------|----------------| x4
A|---------------------------------|----------------|
E|---------------------------------|----------------|

Guitar 2: will only enter at 3rd turn
e|-17-9h10h17p9h10h17p9h10h17-|-19-9h10h19p9h10h19p9h10h19-|
B|----------------------------|----------------------------|
G|----------------------------|----------------------------|
D|----------------------------|----------------------------| x2
A|----------------------------|----------------------------|
E|----------------------------|----------------------------|
               x2                            x2

then

Guitar 1:
           D
                    Bb
e|------------------|-------------------------|
B|------------------|-------------------------|
G|-7--7--7--7--7--7-|-3-3-3-3-3-3-3-3-3-3-3-3-|
D|-7--7--7--7--7--7-|-3-3-3-3-3-3-3-3-3-3-3-3-|
A|-5--5--5--5--5--5-|-1-1-1-1-1-1-1-1-1-1-1-1-|
E|------------------|-------------------------|
           x6

Guitar 2:
e|------------------------|------------------------|
B|------------------------|------------------------|
G|-11--11--11--11--11--11-|-12--12--12--12--12--12-|
D|--x---x---x---x---x---x-|--x---x---x---x---x---x-|
A|--9---9---9---9---9---9-|-10--10--10--10--10--10-|
E|------------------------|------------------------|
             x2                        x2

e|------------------------|----------------------------------------|
B|------------------------|----------------------------------------|
G|-14--14--14--14--14--14-|-15-15-15-15-15-15-15-15-15-15-15-15-15-|
D|--x---x---x---x---x---x-|--x--x--x--x--x--x--x--x--x--x--x--x--x-|
A|-12--12--12--12--12--12-|-13-13-13-13-13-13-13-13-13-13-13-13-13-|
E|------------------------|----------------------------------------|
             x2

then

Guitar 1:
           D                  G
e|------------------|------------------|
B|-3--3--3--3--3--3-|-5--5--5--5--5--5-|
G|------------------|------------------|
D|------------------|------------------| x6
A|------------------|------------------|
E|------------------|------------------|
          x2                  x2

Guitar 2: Effects pedal
e|-2---------------5-3-2-3-5-3-2---|
B|---3-2-3-----------------------3-|
G|---------2-4---------------------|
D|-------------2-4-----------------| x6
A|---------------------------------|
E|---------------------------------|


then

Guitar 1:
           D                  G
e|------------------|------------------|
B|------------------|------------------|
G|-7--7--7--7--7--7-|------------------|
D|-7--7--7--7--7--7-|-5--5--5--5--5--5-| x4
A|-5--5--5--5--5--5-|-5--5--5--5--5--5-|
E|------------------|-3--3--3--3--3--3-|
          x2                  x2

   D
e|---
B|---
G|-7-
D|-7-
A|-5-
E|---


Guitar 2:
e|-----10-9-------------|-------12--9--10-----|
B|-7--------10--7--8----|-10p7-------------10-|
G|--------------------7-|---------------------|
D|----------------------|---------------------| x2
A|----------------------|---------------------|
E|----------------------|---------------------|
            x2                      x2

e|-9-
B|---
G|---
D|---
A|---
E|---


Outro: All Effects

Guitar 1:
e|-2--5--10--------------------|
B|-----------10--7--8--7--5--3-|
G|-----------------------------|
D|-----------------------------|
A|-----------------------------|
E|-----------------------------|

e|-12--10--14--17------15-----|
B|-----------------15---------|
G|-------------------------2--|
D|----------------------------|
A|----------------------------|
E|----------------------------|
Tap to rate this tab
 
# A B C D E F G H I J K L M N O P Q R S T U V W X Y Z