Song name
# A B C D E F G H I J K L M N O P Q R S T U V W X Y Z

10 Years - Silhouette Of A Life tab

d#.----------------------------------------------------------------|
a#.----------------------------------------------------------------|
f#.----------------------------------------------------------------|
c#.------------3--3-----3-----2--2-----2---------------------------|    2x
g#.-------h12--------0-----0--------0-----0------------------------|
c#.--h12-----------------------------------------------------------|


d#.----------------------------------------------------------------|
a#.----------------------------------------------------------------|
f#.----------------------------------------------------------------|
c#.--------h12--3--3-----3-----2--2-----2--------------------------|
g#.---h12-------------0-----0--------0-----0-----------------------|
c#.----------------------------------------------------------------|


d#.----------------------------------------------------------------|
a#.----------------------------------------------------------------|
f#.----------------------------------------------------------------|
c#.--------h12--3--3-----3-----2-----------------------------------|
g#.---h12-------------0-----0--------------------------------------|
c#.----------------------------------------------------------------|


this is my first tab no one seems to have this or one of my other favorite songs 
If anyone can figure out the rest or is having trouble email me s0ccurpr0@gmail.com Cheers!
Tap to rate this tab
# A B C D E F G H I J K L M N O P Q R S T U V W X Y Z