Song name
# A B C D E F G H I J K L M N O P Q R S T U V W X Y Z

10 Years - Silhouette Of A Life tab

This is the intro plus the initial verse. If you have any questions email me s0ccurpr0@gmail.com
					Intro

d#.----------------------------------------------------------------|
a#.----------------------------------------------------------------|
f#.----------------------------------------------------------------|
c#.------------3--3-----3-----2--2-----2---------------------------|    2x
g#.-------h12--------0-----0--------0-----0------------------------|
c#.--h12-----------------------------------------------------------|


d#.----------------------------------------------------------------|
a#.----------------------------------------------------------------|
f#.----------------------------------------------------------------|
c#.--------h12--3--3-----3-----2--2-----2--------------------------|
g#.---h12-------------0-----0--------0-----0-----------------------|
c#.----------------------------------------------------------------|


d#.----------------------------------------------------------------|
a#.----------------------------------------------------------------|
f#.----------------------------------------------------------------|
c#.--------h12--3--3-----3-----2-----------------------------------|
g#.---h12-------------0-----0--------------------------------------|
c#.----------------------------------------------------------------|


					Main Riff/Verse
d#.----------------------------------------------------------------|
a#.----------------------------------------------------------------|
f#.-------3--2---0--2---3--2---0--2--------------------------------|
c#.----5-------3------5------3-------------------------------------| 
g#.----------------------------------------------------------------|
c#.----------------------------------------------------------------|


d#.----------------------------------------------------------------|
a#.----------------------------------------------------------------|
f#.-------5--3-----2--3-----5--3-----2--2--------------------------|
c#.----7--------5--------7--------5--------------------------------| 
g#.----------------------------------------------------------------|
c#.----------------------------------------------------------------|
Tap to rate this tab
# A B C D E F G H I J K L M N O P Q R S T U V W X Y Z