Song name
# A B C D E F G H I J K L M N O P Q R S T U V W X Y Z

10 Years - Rest tab

Tried playing the other tab for this song but for alot of parts, it sounded totally off. 
song is off Killing All That Holds You, the first album from 10 Years that not many 
heard about. Wish they'd re-release it, it truly is a great album. Enjoy!

P.S. this is my first tab, so....play nice :)
Tuning is Drop C# (also known as Drop Db, whatever your preference): Drop D, then tune 
a half-step

Intro
(palm mute)
D#------------------------------------------------|
A#------------------------------------------------|
F#------------------------------------------------|
C#000-00---000-00---000-00---000-00-00-00---------|
G#000-00---000-00---000-00---000-00-00-00---------|
C#000-00---000-00---000-00---000-00-00-0012/------|
                                      (slide)
(Note: there is a subtle clean guitar in the background but I haven't figured that out yet)
Verse
"..read the writing on the wall..."
D#------------------------------------------------|
A#------------------------------------------------|
F#------------------------------------------------|
C#------------------------------------------------| (8x)
G#--12-13-1012---12-13----------------------------|
C#00--0--0-----00--0--0-1210----------------------|

Chorus
"...Sliding down my back a blade..."
D#---------------------------------------------------------------|
A#---------------------------------------------------------------|
F#---------------------------------------------------------------|
C#777777777777888810101010101010101010101010101010---------------| (4x)
G#777777777777888810101010101010101010101010101010---------------|
C#777777777777888810101010101010101010101010101010---------------|


End Chorus 1:
D#-----------------------------------------------|
A#-----------------------------------------------|
F#-----------------------------------------------|
C#000-00-----------------------------------------|
G#000-00-----------------------------------------|
C#000-00-----------------------------------------|

(Repeat Verse) "...skin the past what's done is done..."
(Chorus)

End Chorus 2:
D#---------------------------------------|
A#---------------------------------------|
F#---------------------------------------|
C#0~~~~~~~~~~~~~~~~~~~~~~~~~~~~~~~~~~~~~~|
G#0~~~~~~~~~~~~~~~~~~~~~~~~~~~~~~~~~~~~~~|
C#0~~~~~~~~~~~~~~~~~~~~~~~~~~~~~~~~~~~~~~|
        (let ring) (drum solo)

Bridge:
"...rest from this might teach a lesson..."
D#-1~~~0~~~--------------|
A#---------1~~~----------|
F#-------------0~~~~-----| (let notes ring) (4x)
C#-----------------------|
G#-----------------------|
C#-----------------------|
(clean guitar, subtle chorus effect)

Bridge can also be played like this:
D#-----------------------|
A#-----------------------|
F#-----------------------|
C#-3~~~2~~~--------------| (4x)
G#---------3~~~1~~~~-----|
C#-----------------------|

(Chorus)

Outro:
D#----------------------------------------------------------------|
A#----------------------------------------------------------------|
F#----------------------------------------------------------------|
C#77-0-77-0-88-0-88-0-10101010101010101010101010101010------------| (2x)
G#77-0-77-0-88-0-88-0-10101010101010101010101010101010------------|
C#77-0-77-0-88-0-88-0-10101010101010101010101010101010------------|


D#----------------------------------------------------|
A#----------------------------------------------------|
F#----------------------------------------------------|
C#77-0-77-0-88-0-88--1010---1010----------------------|
G#77-0-77-0-88-0-88--1010---1010----------------------|
C#77-0-77-0-88-0-88--1010---1010----------------------|

I might have been wrong with the # of repeats, but this is how it goes in general
Tap to rate this tab
 
# A B C D E F G H I J K L M N O P Q R S T U V W X Y Z