Song name
# A B C D E F G H I J K L M N O P Q R S T U V W X Y Z

10 Years - So Long Goodbye tab

Artist: 10 Years
Song: So Long Goodbye (Rock Version)
Tabbed by: Sylahr
eMail: sylahr@hotmail.com
Tunnings: Guitar 1 Half-Step down (Eb Ab Db Gb Bb eb) (flats)
          Gutiar 2 Half-Step down (Eb Ab Db Gb Bb eb)
---KEY---
h=hammer ons
p=pull offs
b=bends
~=vibrato
\=slide down neck
/=slide up neck
x=mute pick (hand on neck covering strings)
pm..=palm mute
---KEY---

Opening
Guitar 1 (Clean)
eb|-----------------------------|
Bb|-----------------------------|
Gb|--5---5---4---4--/9-7-4-5----|Second time only
Db|---7-7-----5-5---------------|
Ab|-----------------------------|
Eb|-----------------------------|

Guitar 2 (Clean)
eb|-------------------------0--|
Bb|-------------------------1--|
Gb|-------5-------4---------2--|Play twice
Db|--7--------5-------------2--|
Ab|---0-0------3-3---5-5-xx-0--|
Eb|------------------3-3-xx----|

Verse
Guitar 1 (Clean and very quiet) 
eb|-------------------------------|
Bb|-----------------------------5-|
Gb|-7---7--4---4------------5-----|Play 3 times
Db|--5-5----5-5------5-5-7---77---|
Ab|-------------------------------|
Eb|-------------------------------|

Guitar 2 (Clean) 
eb|-------------------------|
Bb|-------------------------|
Gb|-------------------------|Play 3 times
Db|-77-7-7--55-5-5----------|
Ab|-00-0-0--33-3-3--5-5--7--|
Eb|-----------------3-3--5--|
pm  .. . .  .. . .  . .  .

Both Guitars
eb|------------------|
Bb|------------------|
Gb|------------------|
Db|------------------|Go To Chorus
Ab|-5-5--7--5-5--7---|
Eb|-3-3--5--3-3--5---|
pm  . .  .  . .  .

Chorus
Both Guitars! (Heavy Distortion)
eb|-------------------------------------|
Bb|-------------------------------------|
Gb|--------------------------9-9-9/10\9-|play 4 times
Db|-10-10-10-5-55-5--5-5--7-------------|(final time don't play the octaves)
Ab|-10-10-10-5-55-5--5-5--7--7-7-7/8-\7-|
Eb|-8--8--8--3-33-3--3-3--5-------------|

Transition
Guitar 1
eb|-8--8--7--7--7-8-8/10-8~--8--8--7--7---/12-10-7-8~--|
Bb|--10-10-8--8---------------10-10-8--8---------------|
Gb|----------------------------------------------------|
Db|----------------------------------------------------|
Ab|----------------------------------------------------|
Eb|----------------------------------------------------|

Guitar 2 (Clean Quiet)
eb|-------------------------|
Bb|-------------------------|
Gb|-------------------------|Play twice
Db|-77-7-7--55-5-5----------|
Ab|-00-0-0--33-3-3--5-5--7--|
Eb|-----------------3-3--5--|
pm  .. . .  .. . .  . .  .

Solo
Guitar 1 (Guitar 2 rests with keyboard background)
eb|-/5~-888p7-5h7-3h5-3-3h5p3-0---12---15--|
Bb|---------------------------------12-----|
Gb|----------------------------------------|
Db|----------------------------------------|
Ab|----------------------------------------|
Eb|----------------------------------------|
                                    (10)
eb|-/5~-888p7-5h7-7/10-5-300500700800100012~-|
Bb|------------------------------------------|
Gb|------------------------------------------|
Db|------------------------------------------|
Ab|------------------------------------------|
Eb|------------------------------------------|

   Tapping! (unsure if they are the right notes, but it sounds right)
eb|0h7h9h12p0h7h9h12p0h7h9h12p0h7h9h12p|0h5h7h10p0h5h7h10p0h5h7h10p|
Bb|------------------------------------|---------------------------|
Gb|------------------------------------|---------------------------|
Db|------------------------------------|---------------------------|
Ab|------------------------------------|---------------------------|
Eb|------------------------------------|---------------------------|

eb|0h5h7h10p|0h7h9h12p0h5h7h10p0h7h9h12p0h5h7h10p|
Bb|---------|------------------------------------|
Gb|---------|------------------------------------|
Db|---------|------------------------------------|
Ab|---------|------------------------------------|
Eb|---------|------------------------------------|

eb|0h3h5h8p0h5h7h10p03h5h8p0h5h7h10|-7b-57-5h7p5-3h5p3-1h3p1--------------|
Bb|--------------------------------|-------------------------3h5p3-1h3-/3-|
Gb|--------------------------------|--------------------------------------|
Db|--------------------------------|--------------------------------------|
Ab|--------------------------------|--------------------------------------|
Eb|--------------------------------|--------------------------------------|

eb|------------------------------8-7-8---8-10-10p8p7h10-10p8-10/12-12/15-|
Bb|-0h1p0-----------------5----------------------------------------------|
Gb|-------2/4-4--2-5--7-5---5-5------------------------------------------|
Db|----------------------------------------------------------------------|
Ab|----------------------------------------------------------------------|
Eb|----------------------------------------------------------------------|

eb|17p15p12p10h17p15p12p10h17p15p12p10h17p15p12p10|
Bb|-----------------------------------------------|
Gb|-----------------------------------------------|
Db|-----------------------------------------------|
Ab|-----------------------------------------------|
Eb|-----------------------------------------------|
                                                    Final Chorus Starts
eb|h20p17p15p12h20p17p15p12h20p17p15p12h20p17p15p12|22b--22~-20--17----|
Bb|------------------------------------------------|----------------17-|
Gb|------------------------------------------------|-------------------|
Db|------------------------------------------------|-------------------|
Ab|------------------------------------------------|-------------------|
Eb|------------------------------------------------|-------------------|

Final Chorus
Both Guitars! (Heavy Distortion) (Guitar 1 comes in 2nd time)
eb|-------------------------------------|
Bb|-------------------------------------|
Gb|--------------------------9-9-9/10\9-|play 4 times
Db|-10-10-10-5-55-5--5-5--7-------------|(final time don't play the octaves)
Ab|-10-10-10-5-55-5--5-5--7--7-7-7/8-\7-|
Eb|-8--8--8--3-33-3--3-3--5-------------|

Ending
Guitar 1 (Clean)
eb|-----------------------------------------------------0--|
Bb|-----------------------------------------------------1--|
Gb|--5---5---4---4--4-5-5/7-5~---5---5---4---4--/9-7-5--2--|
Db|---7-7-----5-5-----------------7-7-----5-5-----------2--|
Ab|-----------------------------------------------------0--|
Eb|--------------------------------------------------------|

Guitar 2 (Clean)
eb|-------------------------0--|
Bb|-------------------------1--|
Gb|-------5-------4---------2--|Play twice
Db|--7--------5-------------2--|
Ab|---0-0------3-3---5-5-xx-0--|
Eb|------------------3-3-xx----|


---ORDER---
Opening
Verse
Chorus
Transition
Verse
Chorus
Solo
Final Chorus
Ending
---ORDER---

That's all of it. Unsure about the tapping in the solo, if you happen to know the 
actual notes send me an email :)
    -Sylahr
Tap to rate this tab
# A B C D E F G H I J K L M N O P Q R S T U V W X Y Z