Song name
# A B C D E F G H I J K L M N O P Q R S T U V W X Y Z

10 Years - Autumn Effect tab

The Autumn Effect, by 10 Years

Tuned drop Db (Drop D down one half step)


Intro:

Guitar 1
Eb|------0---------|1-----0---------|------0---------|1-----0---------|
Bb|----3-----3---3-|----3-----3---3-|----3-----3---3-|----3-----3---3-|
Gb|--2-----2---2---|------------2---|--2-----2---2---|------------2---|
Db|0---------------|----------------|0---------------|----------------|
Ab|----------------|----------------|----------------|----------------|
Db|----------------|----------------|----------------|----------------|


Guitar 1
Eb|------0---------|1-----0---------|------0---------|1-----0---------|
Bb|----3-----3---3-|----3-----3---3-|----3-----3---3-|----3-----3---3-|
Gb|--2-----2---2---|------------2---|--2-----2---2---|------------2---|
Db|0---------------|----------------|0---------------|----------------|
Ab|----------------|----------------|----------------|----------------|
Db|----------------|----------------|----------------|----------------|

Guitar 2
Eb|----------------|----------------|----------------|----------------|
Bb|----------------|----------------|----------------|----------------|
Gb|3-3-3-3-3-3-3-3-|5-5-5-5-5-5-5-5-|0-0-0-0-0-0-0-0-|0-0-0-0-0-0-0-0-|
Db|x-x-x-x-x-x-x-x-|x-x-x-x-x-x-x-x-|0-0-0-0-0-0-0-0-|0-0-0-0-0-0-0-0-|
Ab|1-1-1-1-1-1-1-1-|3-3-3-3-3-3-3-3-|0-0-0-0-0-0-0-0-|0-0-0-0-0-0-0-0-|
Db|----------------|----------------|----------------|----------------|


Guitar 1
Eb|------0---------|1-----0---------|------0---------|1-----0---------|
Bb|----3-----3---3-|----3-----3---3-|----3-----3---3-|----3-----3---3-|
Gb|--2-----2---2---|------------2---|--2-----2---2---|------------2---|
Db|0---------------|----------------|0---------------|----------------|
Ab|----------------|----------------|----------------|----------------|
Db|----------------|----------------|----------------|----------------|

Guitar 2
Eb|----------------|----------------|13----10----10--|--11----10------|
Bb|----------------|----------------|----------------|----------------|
Gb|3-3-3-3-3-3-3-3-|5-5-5-5-5-5-5-5-|----------------|----------------|
Db|x-x-x-x-x-x-x-x-|x-x-x-x-x-x-x-x-|----------------|----------------|
Ab|1-1-1-1-1-1-1-1-|3-3-3-3-3-3-3-3-|----------------|----------------|
Db|----------------|----------------|----------------|----------------|



Verse 1:


"Casting a cool breeze"

Guitar 1
Eb|----------------|----------------|------0---------|1-----0---------|
Bb|----------------|----------------|----3-----3---3-|----3-----3---3-|
Gb|3-3-3-3-3-3-3-3-|5-5-5-5-5-5-5-5-|--2-----2---2---|------------2---|
Db|x-x-x-x-x-x-x-x-|x-x-x-x-x-x-x-x-|0---------------|----------------|
Ab|1-1-1-1-1-1-1-1-|3-3-3-3-3-3-3-3-|----------------|----------------|
Db|----------------|----------------|----------------|----------------|

Guitar 2
Eb|----------------|-----------(12)-|13----10----10--|--11----10------|
Bb|----------------|----------------|----------------|----------------|
Gb|----------------|----------------|----------------|----------------|
Db|----------------|----------------|----------------|----------------|
Ab|----------------|----------------|----------------|----------------|
Db|----------------|----------------|----------------|----------------|


"Supplied by the Autumn"

Guitar 1
Eb|----------------|----------------|------0---------|1-----0---------|
Bb|----------------|----------------|----3-----3---3-|----3-----3---3-|
Gb|3-3-3-3-3-3-3-3-|5-5-5-5-5-5-5-5-|--2-----2---2---|------------2---|
Db|x-x-x-x-x-x-x-x-|x-x-x-x-x-x-x-x-|0---------------|----------------|
Ab|1-1-1-1-1-1-1-1-|3-3-3-3-3-3-3-3-|----------------|----------------|
Db|----------------|----------------|----------------|----------------|

Guitar 2
Eb|----------------|-----------(12)-|13----10----10--|--11----10------|
Bb|----------------|----------------|----------------|----------------|
Gb|----------------|----------------|----------------|----------------|
Db|----------------|----------------|----------------|----------------|
Ab|----------------|----------------|----------------|----------------|
Db|----------------|----------------|----------------|----------------|


"Question where it went wrong"

Guitar 1
Eb|------0---------|1-----0---------|------0---------|1-----0---------|
Bb|----3-----3---3-|----3-----3---3-|----3-----3---3-|----3-----3---3-|
Gb|--2-----2---2---|------------2---|--2-----2---2---|------------2---|
Db|0---------------|----------------|0---------------|----------------|
Ab|----------------|----------------|----------------|----------------|
Db|----------------|----------------|----------------|----------------|

Guitar 2
Eb|13----10----10--|--11----10------|13----10----10--|--11----10------|
Bb|----------------|----------------|----------------|----------------|
Gb|----------------|----------------|----------------|----------------|
Db|----------------|----------------|----------------|----------------|
Ab|----------------|----------------|----------------|----------------|
Db|----------------|----------------|----------------|----------------|


"Climbing Jacobs Ladder" (X2)

Guitar 1
Eb|----------------|----------------|------0---------|1-----0---------|
Bb|----------------|----------------|----3-----3---3-|----3-----3---3-|
Gb|3-3-3-3-3-3-3-3-|5-5-5-5-5-5-5-5-|--2-----2---2---|------------2---|
Db|x-x-x-x-x-x-x-x-|x-x-x-x-x-x-x-x-|0---------------|----------------|
Ab|1-1-1-1-1-1-1-1-|3-3-3-3-3-3-3-3-|----------------|----------------|
Db|----------------|----------------|----------------|----------------|

Guitar 2
Eb|----------------|----------------|13----10----10--|--11----10------|
Bb|----------------|----------------|----------------|----------------|
Gb|----------------|----------------|----------------|----------------|
Db|----------------|----------------|----------------|----------------|
Ab|----------------|----------------|----------------|----------------|
Db|----------------|----------------|----------------|----------------|


"Kindly Could you Re-evaluate"

Guitar 1
Eb|------0---------|1-----0---------|------0---------|1-----0---------|
Bb|----3-----3---3-|----3-----3---3-|----3-----3---3-|----3-----3---3-|
Gb|--2-----2---2---|------------2---|--2-----2---2---|------------2---|
Db|0---------------|----------------|0---------------|----------------|
Ab|----------------|----------------|----------------|----------------|
Db|----------------|----------------|----------------|----------------|

Guitar 2
Eb|13----10----10--|--11----10------|13----10----10--|--11----10------|
Bb|----------------|----------------|----------------|----------------|
Gb|----------------|----------------|----------------|----------------|
Db|----------------|----------------|----------------|----------------|
Ab|----------------|----------------|----------------|----------------|
Db|----------------|----------------|----------------|----------------|


"Autumn's animated growth"

Guitar 1
Eb|------0---------|1-----0---------|----------------|----------------|
Bb|----3-----3---3-|----3-----3---3-|----------------|----------------|
Gb|--2-----2---2---|------------2---|3-3-3-3-3-3-3-3-|2---------------|
Db|0---------------|----------------|x-x-x-x-x-x-x-x-|2-----------12\-|
Ab|----------------|----------------|1-1-1-1-1-1-1-1-|0-----------12\-|
Db|----------------|----------------|----------------|------------12\-|

Guitar 2
Eb|13----10----10--|--11----10------|----------------|----------------|
Bb|----------------|----------------|----------------|----------------|
Gb|----------------|----------------|----------------|----------------|
Db|----------------|----------------|----------------|------------12\-|
Ab|----------------|----------------|----------------|------------12\-|
Db|----------------|----------------|----------------|------------12\-|



Chorus:

"Autumn Indicates the death of beauty as we know" (X2)
Eb|----------------|----------------|----------------|----------------|
Bb|----------------|----------------|----------------|----------------|
Gb|----------------|----------------|3--3-3--3--3--3-|5--5-5--5--5--5-|
Db|00--00-0---0-0--|00--00-0---0-0--|3--3-3--3--3--3-|5--5-5--5--5--5-|
Ab|00--00-0---0-0--|00--00-0---0-0--|1--1-1--1--1--1-|3--3-3--3--3--3-|
Db|00--00-0---0-0--|00--00-0---0-0--|----------------|----------------|

"Keep on fighting one day fall, burning at his throat"
Eb|----------------|----------------|----------------|----------------|
Bb|----------------|----------------|----------------|----------------|
Gb|----------------|----------------|3--3-3--3--3--3-|5--5-5--5--5--5-|
Db|00--00-0---0-0--|00--00-0---0-0--|3--3-3--3--3--3-|5--5-5--5--5--5-|
Ab|00--00-0---0-0--|00--00-0---0-0--|1--1-1--1--1--1-|3--3-3--3--3--3-|
Db|00--00-0---0-0--|00--00-0---0-0--|----------------|----------------|

"Autumn swiftly stole the breath of body, mind and-"
Eb|----------------|----------------|----------------|----------------|
Bb|----------------|----------------|----------------|----------------|
Gb|----------------|----------------|3--3-3--3--3--3-|5--5-5--5--5--5-|
Db|00--00-0---0-0--|00--00-0---0-0--|3--3-3--3--3--3-|5--5-5--5--5--5-|
Ab|00--00-0---0-0--|00--00-0---0-0--|1--1-1--1--1--1-|3--3-3--3--3--3-|
Db|00--00-0---0-0--|00--00-0---0-0--|----------------|----------------|

"Soul"
Eb|----------------|----------------|
Bb|----------------|----------------|
Gb|----------------|----------------|
Db|0-------0-------|0-------0-------|
Ab|0-------0-------|0-------0-------|
Db|0-------0-------|0-------0-------|


Verse 2


Guitar 1
Eb|------0---------|1-----0---------|------0---------|1-----0---------|
Bb|----3-----3---3-|----3-----3---3-|----3-----3---3-|----3-----3---3-|
Gb|--2-----2---2---|------------2---|--2-----2---2---|------------2---|
Db|0---------------|----------------|0---------------|----------------|
Ab|----------------|----------------|----------------|----------------|
Db|----------------|----------------|----------------|----------------|


"Try and come to, willingly embrace"

Guitar 1
Eb|----------------|----------------|------0---------|1-----0---------|
Bb|----------------|----------------|----3-----3---3-|----3-----3---3-|
Gb|3-3-3-3-3-3-3-3-|5-5-5-5-5-5-5-5-|--2-----2---2---|------------2---|
Db|x-x-x-x-x-x-x-x-|x-x-x-x-x-x-x-x-|0---------------|----------------|
Ab|1-1-1-1-1-1-1-1-|3-3-3-3-3-3-3-3-|----------------|----------------|
Db|----------------|----------------|----------------|----------------|

Guitar 2
Eb|----------------|----------------|13----10----10--|--11----10------|
Bb|----------------|----------------|----------------|----------------|
Gb|----------------|----------------|----------------|----------------|
Db|----------------|----------------|----------------|----------------|
Ab|----------------|----------------|----------------|----------------|
Db|----------------|----------------|----------------|----------------|


"Kharma's kiss of withering decay"

Guitar 1
Eb|----------------|----------------|------0---------|1-----0---------|
Bb|----------------|----------------|----3-----3---3-|----3-----3---3-|
Gb|3-3-3-3-3-3-3-3-|5-5-5-5-5-5-5-5-|--2-----2---2---|------------2---|
Db|x-x-x-x-x-x-x-x-|x-x-x-x-x-x-x-x-|0---------------|----------------|
Ab|1-1-1-1-1-1-1-1-|3-3-3-3-3-3-3-3-|----------------|----------------|
Db|----------------|----------------|----------------|----------------|

Guitar 2
Eb|----------------|----------------|13----10----10--|--11----10------|
Bb|----------------|----------------|----------------|----------------|
Gb|----------------|----------------|----------------|----------------|
Db|----------------|----------------|----------------|----------------|
Ab|----------------|----------------|----------------|----------------|
Db|----------------|----------------|----------------|----------------|

"Death feeds, hell breeds"

Guitar 1
Eb|------0---------|1-----0---------|------0---------|1-----0---------|
Bb|----3-----3---3-|----3-----3---3-|----3-----3---3-|----3-----3---3-|
Gb|--2-----2---2---|------------2---|--2-----2---2---|------------2---|
Db|0---------------|----------------|0---------------|----------------|
Ab|----------------|----------------|----------------|----------------|
Db|----------------|----------------|----------------|----------------|

Guitar 2
Eb|13----10----10--|--11----10------|13----10----10--|--11----10------|
Bb|----------------|----------------|----------------|----------------|
Gb|----------------|----------------|----------------|----------------|
Db|----------------|----------------|----------------|----------------|
Ab|----------------|----------------|----------------|----------------|
Db|----------------|----------------|----------------|----------------|


"Subside in the autumn"

Guitar 1
Eb|------0---------|1-----0---------|----------------|----------------|
Bb|----3-----3---3-|----3-----3---3-|----------------|----------------|
Gb|--2-----2---2---|------------2---|3-3-3-3-3-3-3-3-|2---------------|
Db|0---------------|----------------|x-x-x-x-x-x-x-x-|2-----------12\-|
Ab|----------------|----------------|1-1-1-1-1-1-1-1-|0-----------12\-|
Db|----------------|----------------|----------------|------------12\-|

Guitar 2
Eb|13----10----10--|--11----10------|----------------|----------------|
Bb|----------------|----------------|----------------|----------------|
Gb|----------------|----------------|----------------|----------------|
Db|----------------|----------------|----------------|------------12\-|
Ab|----------------|----------------|----------------|------------12\-|
Db|----------------|----------------|----------------|------------12\-|


Chorus
Tap to rate this tab
# A B C D E F G H I J K L M N O P Q R S T U V W X Y Z