Song name
# A B C D E F G H I J K L M N O P Q R S T U V W X Y Z

10 Years - Silhouette Of A Life tab

d#.----------------------------------------------------------------|
a#.----------------------------------------------------------------|
f#.----------------------------------------------------------------|
c#.------------3--3-----3-----2--2-----2---------------------------|    2x
g#.-------h5---------0-----0--------0-----0------------------------|
c#.--h12-----------------------------------------------------------|


d#.----------------------------------------------------------------|
a#.----------------------------------------------------------------|
f#.----------------------------------------------------------------|
c#.-------------3--3-----3-----2--2-----2--------------------------|
g#.-------h5----------0-----0--------0-----0-----------------------|
c#.--h12-----------------------------------------------------------|


d#.----------------------------------------------------------------|
a#.----------------------------------------------------------------|
f#.----------------------------------------------------------------|
c#.--------h12--3--3-----3-----2-----------------------------------|

I'm working on the rest of the song, it's been difficult with the low quality of the 
but I'm about to start again now that they've re-released it on their new deluxe edition in 
much better quality. If you have any questions feel free to ask! :)
g#.---h12-------------0-----0--------------------------------------|
c#.----------------------------------------------------------------|


					Main Riff/Verse
d#.----------------------------------------------------------------|
a#.----------------------------------------------------------------|
f#.-------3--2---0--2---3--2---0--2--------------------------------|
c#.------------3------3------3-------------------------------------|
g#.----------------------------------------------------------------|
c#.----0-----------------------------------------------------------|


d#.----------------------------------------------------------------|
a#.----------------------------------------------------------------|
f#.-------3--2-----3--2-----5--3--0--3--2--------------------------|
c#.----2--------3--------------------------------------------------|
g#.----------------------------------------------------------------|
c#.----------------------5-----------------------------------------|
Tap to rate this tab
 
# A B C D E F G H I J K L M N O P Q R S T U V W X Y Z