10 Years - Shoot It Out tab

This is just how I've picked it up by ear, and since there's only one tab that's sketchy 
parts, I'll throw in my own tab. Shoot It Out by 10 Years, from their album Feeding the 
Tuning is Drop Db (or Drop C#); Drop D tuned down a half-step

Verse 1:
Eb|-------------------------------------|
Bb|-------------------------------------|
Gb|-------------------------------------| x4
Db|-------------------------------------|
Ab|-666-555-888888888-5666-555-88888888-|
Db|-------------------------------------|
(palm-muted, I could be wrong but this seems to fit for me)

Pre-chorus
"I'm ready to die..."
Eb|-----------------------------------|
Bb|-----------------------------------|
Gb|-----------------------------------|    x2
Db|-----------------------------------|
Ab|-----------------------------------|
Db|-0-1-3-0-1-0-0--1-3-0-1-0----------|
(subtle wah pedal use here)

Chorus:
"Will you kill what's left of me..."  "Shoot it, shoot it out 'cause..."
Eb|-----------------------------------|------------------------------------|
Bb|-----------------------------------|------------------------------------|
Gb|-----------------------------------|------------------------------------|
Db|-5-------3-------8---------1-------|-0-1-3-0-1-0-0--1-3-0-1-0-----------|
Ab|-5-------3-------8---------1-------|-0-1-3-0-1-0-0--1-3-0-1-0-----------|
Db|-5-------3-------8---------1-------|-0-1-3-0-1-0-0--1-3-0-1-0-----------|

Verse 2: (same)

Chorus: (same)

Bridge:
"Feeding the wolves...."
Eb|----------------|
Bb|----------------|
Gb|----------------| 4x
Db|-111-000-0------|
Ab|-111-000-0------|
Db|-111-000-0------|

Eb|-----------------------------------|
Bb|-----------------------------------|
Gb|-----------------------------------|    x4
Db|-----------------------------------|
Ab|-----------------------------------|
Db|-0-1-3-0-1-0-0-0-0-1-3-0-1-0-0-0---|
(palm-muted, similar to prechorus but using all the beats)

Guitar 1 (repeat pre-chorus section during solo):
Eb|-----------------------------------|
Bb|-----------------------------------|
Gb|-----------------------------------|    x4
Db|-----------------------------------|
Ab|-----------------------------------|
Db|-0-1-3-0-1-0-0--1-3-0-1-0----------|

I'll have the solo up in a little bit, this is all from memory and I want it to be perfect

Chorus: (same)

Outro: (starts with screaming)
Eb|-----------------------------------|
Bb|-----------------------------------|
Gb|-----------------------------------|
Db|-0-1-3-0-1-0-0--1-3-0-1-0----------| x2
Ab|-0-1-3-0-1-0-0--1-3-0-1-0----------|
Db|-0-1-3-0-1-0-0--1-3-0-1-0----------|
                        (let last note ring)
Tap to rate this tab
 
# A B C D E F G H I J K L M N O P Q R S T U V W X Y Z