Song name
# A B C D E F G H I J K L M N O P Q R S T U V W X Y Z

10 Years - Dead In The Water tab

this is my first tab..
so im not sure if the verse is correct
and not sure if the little part
after the first part of the chorus is correct either
and im not 100% sure what the tuning is..
but im thinkin its 
C# G# C# F# A# D# 
if anyone figures out the Bridge/Outro before i do email me at 

yolilhu3ra713@aol.com

thanks and i hope this tab is decent

oh and for the intro and choruses you gotta figure out the timing..
it shouldnt be too hard to figure out..
but if it is just youtube this song live and you'll get it like that..

Intro

|-0-0---------------------------------------|
|-0-0---------------------------------------|
|-0-0-----5--3--5-----5-----5--3--5-----5---|
|-5-5--5--5--3--5--3--5--5--5--3--5--3--5---|
|-5-5--5--3--1--3--3--3--5--3--1--3--3--3---|
|-5-5--5-----------3-----5-----------3------|
      ^pick scrape

Verse
|--0---0---0---0------|
|--0---0---0---0------|
|--0---0---0---0------|
|--5---5---5---5------|
|--5---5---5---5------|
|--5---5---5---5------|
pick scrape then

Pre-Chorus(Palm Mute)
|-----------------------------------------------|
|-----------------------------------------------|
|--------55--3333--77--5555---------------------|
|--5555--55--3333--77--5555--5--3333p0h3p0h3p0--|
|--5555--33--1111--55--3333--5--3333p0h3p0h3p0--|
|--5555----------------------5--3333p0h3p0h3p0--|


Pre-Chorus*continued*(Palm Mute)
|------------------------------------------|
|------------------------------------------|
|-------55--3333--77--5555--99-77777777----|
|-5555--55--3333--77--5555--99-77777777----|
|-5555--33--1111--55--3333--77-55555555----|
|-5555-------------------------------------|


Chorus
|----------------------------------------------|
|----------------------------------------------|
|----5--3--5--------------------5--3--5-----5--|
|-5--5--3--5--3--------------5--5--3--5--3--5--| x2 
|-5--3--1--3--3-5-3-0-3------5--3--1--3--3--3--|
|-5-----------3---------0-3--5-----------3-----|


Verse
|--0---0---0---0------|
|--0---0---0---0------|
|--0---0---0---0------|
|--5---5---5---5------|
|--5---5---5---5------|
|--5---5---5---5------|


Pre-Chorus(Palm Mute)
|-----------------------------------------------|
|-----------------------------------------------|
|--------55--3333--77--5555---------------------|
|--5555--55--3333--77--5555--5--3333p0h3p0h3p0--|
|--5555--33--1111--55--3333--5--3333p0h3p0h3p0--|
|--5555----------------------5--3333p0h3p0h3p0--|


Pre-Chorus*continued*(Palm Mute)
|------------------------------------------|
|------------------------------------------|
|-------55--3333--77--5555--99-77777777----|
|-5555--55--3333--77--5555--99-77777777----|
|-5555--33--1111--55--3333--77-55555555----|
|-5555-------------------------------------|


Chorus
|----------------------------------------------|
|----------------------------------------------|
|----5--3--5--------------------5--3--5-----5--|
|-5--5--3--5--3--------------5--5--3--5--3--5--| x2 
|-5--3--1--3--3-5-3-0-3------5--3--1--3--3--3--|
|-5-----------3---------0-3--5-----------3-----|


Bridge(dont know it yet)

after bridge

|---------------------------|
|---------------------------|
|--PM-----------------------|
|-5555--5~------------------|
|-5555--5~-----5-3-0-3------|
|-5555--5~-------------0-3--|


Chorus
|----------------------------------------------|
|----------------------------------------------|
|----5--3--5--------------------5--3--5-----5--|
|-5--5--3--5--3--------------5--5--3--5--3--5--| x2 
|-5--3--1--3--3-5-3-0-3------5--3--1--3--3--3--|
|-5-----------3---------0-3--5-----------3-----|

Outro(dont know it yet)


end on
|--------|
|--------|
|--PM----|
|-00000--|
|-00000--|
|-00000--|


********IMPORTANT MESSAGE**********

this is what Brian plays during the chorus and stuff
everything i have tabbed up there is Taters part..

|---------------------|
|---------------------|
|------------------5--|
|-5--10--8--10--3--5--|
|-5--10--8--10--3--3--|
|-5--10--8--10--3-----|
Tap to rate this tab
 
# A B C D E F G H I J K L M N O P Q R S T U V W X Y Z