Song name
# A B C D E F G H I J K L M N O P Q R S T U V W X Y Z

10 Years - The Wicked Ones tab

WOOHOO!! Awesome song :)

----------------------------

10 Years
“The Wicked Ones”
Feeding the Wolves

Drop C# (C#,G#,C#,F#,A#,D#)
Novice Level


INTRO---
[fade in 0:00-0:03]

(0:03)
Both guitars: [clean tone / let ring]
|-----------------------------------------------------------------|
|-----------------------------------------------------------------|
|-----------------------------------------------------------------|
|---0---------3p0---0---------3p0---0---------3p0-----------------|
|-----0---3p0---------0---3p0---------0---3p0-------8-8-8-8-7-7-7-|
|-0-----0---------0-----0---------0-----0-----------8-8-8-8-7-7-7-|



VERSE---
(0:09)
Guitar 1:
|-----------------------------------------------------------------|
|-----------------------------------------------------------------|
|-----------------------------------------------------------------|
|---0---------3p0---0---------3p0---0---------3p0-----------------|
|-----0---3p0---------0---3p0---------0---3p0-------8-8-8-8-7-7-7-|
|-0-----0---------0-----0---------0-----0-----------8-8-8-8-7-7-7-|

Guitar 2: [light distortion / heavy reverb]
|-----------------------------------------------------------------|
|-/10~~~~~~~~---------------------------------------\\\\----------|
|-----------------------------------------------------------------|
|-----------------------------------------------------------------|
|-----------------------------------------------------------------|
|-----------------------------------------------------------------|

(0:15)
Guitar 1:
|--------------------------------------------------------------------|
|--------------------------------------------------------------------|
|--------------------------------------------------------------------|
|---0---------3p0---0---------3p0---0---------3p0--------------------|
|-----0---3p0---------0---3p0---------0---3p0-------8-8-8-8-10-10-10-|
|-0-----0---------0-----0---------0-----0-----------8-8-8-8-10-10-10-|

Guitar 2:
|-----------------------------------------------------------------|
|-/10~~~~~~~~---------------------------------------\\\\----------|
|-----------------------------------------------------------------|
|-----------------------------------------------------------------|
|-----------------------------------------------------------------|
|-----------------------------------------------------------------|

(0:22)
Guitar 1:
|-----------------------------------------------------------------|
|-----------------------------------------------------------------|
|-----------------------------------------------------------------|
|---0---------3p0---0---------3p0---0---------3p0-----------------|
|-----0---3p0---------0---3p0---------0---3p0-------8-8-8-8-7-7-7-|
|-0-----0---------0-----0---------0-----0-----------8-8-8-8-7-7-7-|

Guitar 2:
|-----------------------------------------------------------------|
|-/10~~~~~~~~---------------------------------------\\\\----------|
|-----------------------------------------------------------------|
|-----------------------------------------------------------------|
|-----------------------------------------------------------------|
|-----------------------------------------------------------------|

(0:28)
Guitar 1:
|--------------------------------------------------------------------|
|--------------------------------------------------------------------|
|--------------------------------------------------------------------|
|---0---------3p0---0---------3p0---0---------3p0--------------------|
|-----0---3p0---------0---3p0---------0---3p0-------8-8-8-8-10-10-10-|
|-0-----0---------0-----0---------0-----0-----------8-8-8-8-10-10-10-|

Guitar 2:
|--------------------------------------------------------------------|
|---------------------------------13~~~~~~~--------------------------|
|--------------------------------------------------------------------|
|--------------------------------------------------------------------|
|-/8~~~~~~~~----------------------------------------8-8-8-8-10-10-10-|
|---------------------------------------------------8-8-8-8-10-10-10-|



PRECHORUS---
(0:35)
Guitar 1: [w/ distortion]
|-------------------------------------------------------------------------|
|-------------------------------------------------------------------------|
|-------------------------------------------------------------------------|
|-----------------10-10-10-10-8-8-8-8-----------------10-10-10-10-8-8-8-8-|
|-0~--0-0-8-8-7-5-10-10-10-10-8-8-8-8-0~--0-0-8-8-7-5-10-10-10-10-8-8-8-8-|
|-0~--0-0---------10-10-10-10-8-8-8-8-0~--0-0---------10-10-10-10-8-8-8-8-|

Guitar 2: [w/ distortion]
|-------------------------------------------------------------------------|
|----------------/13~~~~--------------\\-------------/10~~~~--------------|
|-------------------------------------------------------------------------|
|-------------------------------------------------------------------------|
|-------------------------------------------------------------------------|
|-------------------------------------------------------------------------|

(0:41)
Guitar 1:
|---------------------------------------------------------------------|
|---------------------------------------------------------------------|
|---------------------------------------------------------------------|
|---------------------------------------------------------------------|
|-0~--0-0-8-8-7-5-10-10-10-10-8-8-8-8-----------------------------3h5-|
|-0~--0-0---------10-10-10-10-8-8-8-8-3-3~--0-3-3~--0-5-5~--0-3h5-----|

Guitar 2:
|-------------------------------------------------------------------------|
|-\\\\-----------/13~~~~--------------10~~~~------------------------------|
|-------------------------------------------------------------------------|
|-------------------------------------------------------------------------|
|-------------------------------------------------------------------------|
|-------------------------------------------------------------------------|



CHORUS---
(0:47)
Both guitars:
|---------------------------------------------------|
|---------------------------------------------------|
|---------------------------------------------------|
|-0-0---0-10-10-0-0---0-8-8-0-0---------------------|
|-0-0---0-10-10-0-0---0-8-8-0-0---0-5-5-3-3-----3-3-|
|-0-0---0-10-10-0-0---0-8-8-0-0---0-5-5-3-3-5-5-----|

(0:52)
Both guitars:
|---------------------------------------------------|
|---------------------------------------------------|
|---------------------------------------------------|
|-0-0---0-10-10-0-0---0-8-8-0-0---------------------|
|-0-0---0-10-10-0-0---0-8-8-0-0---0-5-5-3-3-----3-3-|
|-0-0---0-10-10-0-0---0-8-8-0-0---0-5-5-3-3-5-5-----|

(0:57)
Both guitars:
|---------------------------------------------------|
|---------------------------------------------------|
|---------------------------------------------------|
|-0-0---0-10-10-0-0---0-8-8-0-0---------------------|
|-0-0---0-10-10-0-0---0-8-8-0-0---0-5-5-3-3-----3-3-|
|-0-0---0-10-10-0-0---0-8-8-0-0---0-5-5-3-3-5-5-----|

(1:02)
Both guitars:
|---------------------------------------------------|
|---------------------------------------------------|
|---------------------------------------------------|
|-0-0---0-10-10-0-0---0-8-8-0-0---------------------|
|-0-0---0-10-10-0-0---0-8-8-0-0---0-5-5-3-3-----3-3-|
|-0-0---0-10-10-0-0---0-8-8-0-0---0-5-5-3-3-5-5-----|



REPEAT INTRO---
(1:07-1:13)


REPEAT VERSE---
(1:13-1:32)


REAPEAT PRECHORUS---
(1:32-1:45)


REPEAT CHORUS---
(1:45-2:04)



BRIDGE Part 1---
(2:04)
Both guitars:
|---------------------------------------|
|---------------------------------------|
|---------------------------------------|
|---------------------------------------|
|-0-0--0----0-0--0----0-0--0--------3h5-|
|-0-0--0----0-0--0----0-0--0----3h5-----|

(2:09)
Both guitars:
|---------------------------------------|
|---------------------------------------|
|---------------------------------------|
|---------------------------------------|
|-0-0--0----0-0--0----0-0--0--------3h5-|
|-0-0--0----0-0--0----0-0--0----3h5-----|

(2:14)
Both guitars:
|---------------------------------------|
|---------------------------------------|
|---------------------------------------|
|---------------------------------------|
|-0-0--0----0-0--0----0-0--0--------3h5-|
|-0-0--0----0-0--0----0-0--0----3h5-----|

(2:19)
Both guitars:
|---------------------------------------|
|---------------------------------------|
|---------------------------------------|
|---------------------------------------|
|-0-0--0----0-0--0----0-0--0--------3h5-|
|-0-0--0----0-0--0----0-0--0----3h5-----|



BRIDGE Part 2---
(2:23)
Guitar 1:
|-------------------------------------------------|
|-------------------------------------------------|
|-------------------------------------------------|
|-------------------------------------------------|
|-------------5-------------------------------3h5-|
|-0-0~--0-3h5---0~--0-3h5p3-0~--0-3-5-3-0-3h5-----|

Guitar 2:
|-------------------------------------------------|
|-15~~~~-------------------------------------\\\\-|
|-------------------------------------------------|
|-------------------------------------------------|
|-------------------------------------------------|
|-------------------------------------------------|

(2:28)
Guitar 1:
|-------------------------------------------------|
|-------------------------------------------------|
|-------------------------------------------------|
|-------------------------------------------------|
|-------------5-------------------------------3h5-|
|-0-0~--0-3h5---0~--0-3h5p3-0~--0-3-5-3-0-3h5-----|

Guitar 2:
|-------------------------------------------------|
|-15~~~~-------------------------------------\\\\-|
|-------------------------------------------------|
|-------------------------------------------------|
|-------------------------------------------------|
|-------------------------------------------------|

(2:33)
Guitar 1:
|-------------------------------------------------|
|-------------------------------------------------|
|-------------------------------------------------|
|-------------------------------------------------|
|-------------5-------------------------------3h5-|
|-0-0~--0-3h5---0~--0-3h5p3-0~--0-3-5-3-0-3h5-----|

Guitar 2:
|-------------------------------------------------|
|-18~~~~-------------------------------------\\\\-|
|-------------------------------------------------|
|-------------------------------------------------|
|-------------------------------------------------|
|-------------------------------------------------|

(2:38)
Guitar 1:
|-------------------------------------------------|
|-------------------------------------[w/ tremolo]|
|-------------------------------------------------|
|-------------------------------------------------|
|-------------5-------------------------------3-5-|
|-0-0~--0-3h5---0~--0-3h5p3-0~--0-3-5-3-0-3-5-----|

Guitar 2:
|-------------------------------------------------|
|-------------------------------------------------|
|-12~~~~------------------14~~~~------------------|
|-------------------------------------------------|
|-------------------------------------------------|
|-------------------------------------------------|



REPEAT CHORUS---
(2:43-3:03)



OUTRO---
(3:03)
Guitar 1:
|-------------------------------------------------|
|-------------------------------------------------|
|-------------------------------------------------|
|-------------------------------------------------|
|-------------5-------------------------------3h5-|
|-0-0~--0-3h5---0~--0-3h5p3-0~--0-3-5-3-0-3h5-----|

Guitar 2: 
|-------------------------------------------------|
|-------------------------------------------------|
|-12~~~~------------------------------------------|
|-------------------------------------------------|
|-------------------------------------------------|
|-------------------------------------------------|

(3:08)
Guitar 1:
|-------------------------------------------------|
|-------------------------------------------------|
|-------------------------------------------------|
|-------------------------------------------------|
|-------------5-------------------------------3h5-|
|-0-0~--0-3h5---0~--0-3h5p3-0~--0-3-5-3-0-3h5-----|

Guitar 2:
|-------------------------------------------------|
|-------------------------------------------------|
|-10~~~~------------------12~~~~------14~~~~------|
|-------------------------------------------------|
|-------------------------------------------------|
|-------------------------------------------------|
Tap to rate this tab
 
# A B C D E F G H I J K L M N O P Q R S T U V W X Y Z