Song name
# A B C D E F G H I J K L M N O P Q R S T U V W X Y Z

10 Years - Now Is The Time tab

here is my tab for now is the time by 10 years..
im not sure if the intro or the bridge is right
but it sounds close..
very fun song to play so have fun with it :)
if you dont think the intro or bridge sounds close to the song
then let me know or just mess around with it
and do it your own way..
leave comments if youd like..

Intro/Pre-Chorus
(distortion)
|---------------------------------| |--------------------------------|
|---------------------------------| |--------------------------------|
|---------------------------------| |--------------------------------| x2
|---------------------------------| |--------------------------------|
|---------------------------------| |--------------------------------|
|-0-5-8-5-8-5-5-5-7-0-5-0-3-5-3-0-| |-0-5-8-5-8-5-5-5-7-0-5-0-3-5/10-|

(clean)
|------------------------------------------------------------|
|------------------------------------------------------------|
|-7-7-7-77-9-1010-1010--10-9-7-7-7-77-7-7-5-5-5-55-5---------|
|-x-x-x-xx-x-x-x---xx----8-7-5-5-5-55-5-5-3-3-3-33-3---------| x3
|-5-5-5-55-7-8-8---88----8-7-5-5-5-55-5-5-3-3-3-33-3---------|
|------------------------8-7-5-5-5-55-5-5-3-3-3-33-3---------|

|------------------------------------------------------------|
|------------------------------------------------------------|
|-7-7-7-77-9-1010-1010--10-9-7-7-7-77-7-7---5-5-5-55-5-------|
|-x-x-x-xx-x-x-x---xx----8-7-5-5-5-55-5-5---3-3-3-33-3-xxxx--|
|-5-5-5-55-7-8-8---88----8-7-5-5-5-55-5-5---3-3-3-33-3-xxxx--|
|------------------------8-7-5-5-5-55-5-5---3-3-3-33-3-xxxx--|
                                                      ^-----------distortion

pre-chorus
|---------------------------------| |--------------------------------|
|---------------------------------| |--------------------------------|
|---------------------------------| |--------------------------------| x2
|---------------------------------| |--------------------------------|
|---------------------------------| |--------------------------------|
|-0-5-8-5-8-5-5-5-7-0-5-0-3-5-3-0-| |-0-5-8-5-8-5-5-5-7-0-5-0-3-5/10-|

Chorus(repeat twice)
(slightly bend on last 10)
(figure out strums)
|--------------------------| |--------------------------|   
|--------------------------| |--------------------------|    
|--------------------------| |--------------------------|
|-0~-10-0~-10--------------| |-0~-10-888888-5555-1010---| x2
|-0~-10-0~-10--------------| |-0~-10-888888-5555-1010---|
|-0~-10-0~-10--------------| |-0~-10-888888-5555-1010---|    

(verse 2)
(clean)
|------------------------------------------------------------|
|------------------------------------------------------------|
|-7-7-7-77-9-1010-1010--10-9-7-7-7-77-7-7-5-5-5-55-5---------|
|-x-x-x-xx-x-x-x---xx----8-7-5-5-5-55-5-5-3-3-3-33-3---------| 
|-5-5-5-55-7-8-8---88----8-7-5-5-5-55-5-5-3-3-3-33-3---------|
|------------------------8-7-5-5-5-55-5-5-3-3-3-33-3---------|

|------------------------------------------------------------|
|------------------------------------------------------------|
|-7-7-7-77-9-1010-1010--10-9-7-7-7-77-7-7---5-5-5-55-5-------|
|-x-x-x-xx-x-x-x---xx----8-7-5-5-5-55-5-5---3-3-3-33-3-xxxx--|
|-5-5-5-55-7-8-8---88----8-7-5-5-5-55-5-5---3-3-3-33-3-xxxx--|
|------------------------8-7-5-5-5-55-5-5---3-3-3-33-3-xxxx--|
                                                      ^-----------distortion

pre-chorus
|---------------------------------| |--------------------------------|
|---------------------------------| |--------------------------------|
|---------------------------------| |--------------------------------| x2
|---------------------------------| |--------------------------------|
|---------------------------------| |--------------------------------|
|-0-5-8-5-8-5-5-5-7-0-5-0-3-5-3-0-| |-0-5-8-5-8-5-5-5-7-0-5-0-3-5/10-|

Chorus(repeat twice)
(slightly bend on last 10)
(figure out strums)
|--------------------------| |--------------------------|   
|--------------------------| |--------------------------|    
|--------------------------| |--------------------------|
|-0~-10-0~-10--------------| |-0~-10-888888-5555-1010---| x2
|-0~-10-0~-10--------------| |-0~-10-888888-5555-1010---|
|-0~-10-0~-10--------------| |-0~-10-888888-5555-1010---|                    

end second chorus on open powerchords and let ring into

(bridge)(palm mute part)
|--------------------------------------------|
|--------------------------------------------|
|--------------------------------------------|
|--------------------------------------------| 
|--------------------------------------------|
|-0-7-8-00-3-5-3-0-3-0-0-7-8-00-3-5-3-0-3-0--|

|---------------------------------------------|
|---------------------------------------------|
|---------------------------------------------|
|---------------------------------------------| 
|---------------------------------------------|
|-0-7-8-00-3-5-3-0-3-0-0-7-8-00-3-5-3-0-3-0-3b|

(second part of bridge, no palm mute)
|---------------------------------------------------|
|---------------------------------------------------|
|---------------------------------------------------|
|---------------------------------------------------| X3
|---7-8-0-5-----------------7-8-0-5-----------------|
|-0--------0-0-3-5-3-0-3-0-0--------0-0-3-5-3-0-3-0-|

|------------------------------------------------------|
|------------------------------------------------------|
|------------------------------------------------------|
|------------------------------------------------------| 
|---7-8-0-5-----------------7-8-0-5--------------------|
|-0--------0-0-3-5-3-0-3-0-0--------0-0-3-5-3-0-3-0-3b-|

Chorus/Outro(repeat twice)
(slightly bend on last 10)
(figure out strums)
(on second time end with open powerchords)
|--------------------------| |--------------------------|   
|--------------------------| |--------------------------|    
|--------------------------| |--------------------------|
|-0~-10-0~-10--------------| |-0~-10-888888-5555-1010---| x2
|-0~-10-0~-10--------------| |-0~-10-888888-5555-1010---|
|-0~-10-0~-10--------------| |-0~-10-888888-5555-1010---|    

Tap to rate this tab
 
# A B C D E F G H I J K L M N O P Q R S T U V W X Y Z