Song name
# A B C D E F G H I J K L M N O P Q R S T U V W X Y Z

10 Years - Wasteland tab

Wasteland, by 10 Years


Tuning - Open Dsus down 1/2 step (Db Ab Db Gb Db Db)
Time Signature - 4:4
Key Signature - F-Sharp Minor
Tempo - 73

-Intro-

(Clean Electric Guitar)
Db|--0-----------------------------|--0-----------------------------|
Db|--0-----------------------------|--0-----------------------------|
Gb|--------------------------------|--------------------------------|
Db|--------------------------------|--------------------------------|
Ab|1-----------------------------1/|3-------------------------------|
Db|1-----------------------------1/|3-------------------------------|

Change my Attempt,                  Good Intentions
Db|0-------------------------------|--------------------------------|
Db|0-------------------------------|--------------------------------|
Gb|--------------------------------|--------------------------------|
Db|5-------------------------------|--------------------------------|
Ab|5-------------------------------|--------------------------------|
Db|5-------------------------------|--------------------------------|

(Electric Guitar)
Db|--000---------------------------|--000---------------------------|
Db|--000---------------------------|--000---------------------------|
Gb|--------------------------------|--------------------------------|
Db|------------------------------5-|------------------------5-5-5-5-|
Ab|1-------------------------0-0x3-|3---------------------0-3-3-3-3-|
Db|1-------------------------0-0x--|3---------------------0---------|



-Verse 1-



(Electric Guitar 1)
Crouched (crouched) Over (over)     You were not there, living in fear but
Db|--------------------------------|--------------------------------|
Db|--------------------------------|--------------------------------|
Gb|--------3-3-3-2-2-2-------------|--------3-3-3-2-2-2-------------|
Db|5-5-5-5-------------3-3-3-3-3-3-|5-5-5-5-------------3-3-3-3-3-3-|
Ab|--------------------------------|--------------------------------|
Db|--------------------------------|--------------------------------|
  {
(Electric Guitar 2)
Db|--------------------------------|--------------------------------|
Db|--------------------------------|--------------------------------|
Gb|--------------------------------|--------------------------------|
Db|--------------------------------|--------------------------------|
Ab|5-5-5-5-5-5-5-5-5-5-5-5-5-8-8-8-|5-5-5-5-5-5-5-5-5-5-5-5-5-8-8-8\|
Db|5-5-5-5-5-5-5-5-5-5-5-5-5-8-8-8-|5-5-5-5-5-5-5-5-5-5-5-5-5-8-8-8\|



(Electric Guitar 1)
Signs (signs) were not (were not)   Really that scarce, obvious tears but
Db|--------------------------------|--------------------------------|
Db|--------------------------------|--------------------------------|
Gb|--------2-2-2-3-3-3-3-3-3-3-3-3-|------5-5-5-5-------------------|
Db|1-1-1-1-------------------------|0-0-0---------7-7-7-7-7-7-7-7-7-|
Ab|--------------------------------|--------------------------------|
Db|--------------------------------|--------------------------------|
  {
(Electric Guitar 2)
Db|--------------------------------|--------------------------------|
Db|--------------------------------|--------------------------------|
Gb|--------------------------------|--------------------------------|
Db|--------------------------------|--------------------------------|
Ab|1-1-1-1-1-1-1-1-1-1-1-1-1-1-1-1-|0-0-0-0-0-0-0-0-0-3-3-3---------|
Db|1-1-1-1-1-1-1-1-1-1-1-1-1-1-1-1-|0-0-0-0-0-0-0-0-0-3-3-3-3-0-3p0-|



(Electric Guitar 1)
I (I) Will not (will not)           Hide you through this, I want you to help and
Db|--------------------------------|--------------------------------|
Db|--------------------------------|--------------------------------|
Gb|--------3-3-3-2-2-2-------------|--------3-3-3-2-2-2-------------|
Db|5-5-5-5-------------3-3-3-3-3-3-|5-5-5-5-------------3-3-3-3-3-3-|
Ab|--------------------------------|--------------------------------|
Db|--------------------------------|--------------------------------|
  {
(Electric Guitar 2)
Db|--------------------------------|--------------------------------|
Db|--------------------------------|--------------------------------|
Gb|--------------------------------|--------------------------------|
Db|--------------------------------|--------------------------------|
Ab|5-5-5-5-5-5-5-5-5-5-5-5-5-8-8-8-|5-5-5-5-5-5-5-5-5-5-5-5-5-8-8-8\|
Db|5-5-5-5-5-5-5-5-5-5-5-5-5-8-8-8-|5-5-5-5-5-5-5-5-5-5-5-5-5-8-8-8\|




(Electric Guitar 1)
Please (please) See (see)           The bleeding heart purched on my shirt
Db|--------------------------------|--------------------------------|
Db|--------------------------------|--------------------------------|
Gb|--------2-2-2-3-3-3-3-3-3-3-3-3-|------5-5-5-5-------------------|
Db|1-1-1-1-------------------------|0-0-0---------7-7-7-7-7-7-7-7-7-|
Ab|--------------------------------|--------------------------------|
Db|--------------------------------|--------------------------------|
  {
(Electric Guitar 2)
Db|--------------------------------|--------------------------------|
Db|--------------------------------|--------------------------------|
Gb|--------------------------------|--------------------------------|
Db|--------------------------------|--------------------------------|
Ab|1-1-1-1-1-1-1-1-1-1-1-1-1-1-1-1-|0-0-0-0-0-0-0-0-0-3-3-3---------|
Db|1-1-1-1-1-1-1-1-1-1-1-1-1-1-1-1-|0-0-0-0-0-0-0-0-0-3-3-3-3-0-3p0-|



(Electric Guitar 1)
Die (die) Withdraw (withdraw)       Hide in cold sweat, quivering lips
Db|--------------------------------|--------------------------------|
Db|--------------------------------|--------------------------------|
Gb|--------3-3-3-2-2-2-------------|--------3-3-3-2-2-2-------------|
Db|5-5-5-5-------------3-3-3-3-3-3-|5-5-5-5-------------3-3-3-3-3-3-|
Ab|--------------------------------|--------------------------------|
Db|--------------------------------|--------------------------------|
  {
(Electric Guitar 2)
Db|--------------------------------|--------------------------------|
Db|--------------------------------|--------------------------------|
Gb|--------------------------------|--------------------------------|
Db|--------------------------------|--------------------------------|
Ab|5-5-5-5-5-5-5-5-5-5-5-5-5-8-8-8-|5-5-5-5-5-5-5-5-5-5-5-5-5-8-8-8\|
Db|5-5-5-5-5-5-5-5-5-5-5-5-5-8-8-8-|5-5-5-5-5-5-5-5-5-5-5-5-5-8-8-8\|
  {
(Electric Guitar 3)
Db|-------------12-----------------|--------------------------------|
Db|--------------------------------|--------------------------------|
Gb|12------------------------------|--------------------------------|
Db|--------------------------------|--------------------------------|
Ab|--------------------------------|--------------------------------|
Db|--------------------------------|--------------------------------|



(Electric Guitar 1)
Ignore (-nore) Remorse (-morse)     Naming a kid, living wasteland this
Db|--------------------------------|--------------------------------|
Db|--------------------------------|--------------------------------|
Gb|--------3-3-3-2-2-2-------------|--------3-3-3-2-2-2-------------|
Db|5-5-5-5-------------3-3-3-3-3-3-|5-5-5-5-------------3-3-3-3-3-3-|
Ab|--------------------------------|--------------------------------|
Db|--------------------------------|--------------------------------|
  {
(Electric Guitar 2)
Db|--------------------------------|--------------------------------|
Db|--------------------------------|--------------------------------|
Gb|--------------------------------|--------------------------------|
Db|--------------------------------|--------------------------------|
Ab|5-5-5-5-5-5-5-5-5-5-5-5-5-8-8-8-|5-5-5-5-5-5-5-5-5-5-5-5-5-8-8-8\|
Db|5-5-5-5-5-5-5-5-5-5-5-5-5-8-8-8-|5-5-5-5-5-5-5-5-5-5-5-5-5-8-8-8\|
  {
(Electric Guitar 3)
Db|-------------12-------10--------|--------------------------------|
Db|------------------------------10|--------------------------------|
Gb|12------------------------------|--------------------------------|
Db|--------------------------------|--------------------------------|
Ab|--------------------------------|--------------------------------|



(Electric Guitar 1)
Time (time) You've Tried (tried)    All that you can, turning you red
Db|--------------------------------|--------------------------------|
Db|--------------------------------|--------------------------------|
Gb|--------3-3-3-2-2-2-------------|--------3-3-3-2-2-2-------------|
Db|5-5-5-5-------------3-3-3-3-3-3-|5-5-5-5-------------3-3-3-3-3-3-|
Ab|--------------------------------|--------------------------------|
Db|--------------------------------|--------------------------------|
  {
(Electric Guitar 2)
Db|--------------------------------|--------------------------0-0---|
Db|--------------------------------|--------------------------0-0---|
Gb|--------------------------------|--------------------------------|
Db|--------------------------------|--------------------------5-5-0-|
Ab|5-5-5-5-5-5-5-5-5-5-5-5-5-8-8-8-|5-5-5-5-5-5-5-5-5-5-5-5-5-5-5-0-|
Db|5-5-5-5-5-5-5-5-5-5-5-5-5-8-8-8-|5-5-5-5-5-5-5-5-5-5-5-5-5-5-5-0-|
  {
(Electric Guitar 3)
Db|-------------12-----------------|-------------12h13---------p12--|
Db|--------------------------------|--------------------------------|
Gb|12------------------------------|--------------------------------|
Db|--------------------------------|--------------------------------|
Ab|--------------------------------|--------------------------------|




-Prechorus-


(Electric Guitar)
Db|--000---------------------------|--000---------------------------|
Db|--000---------------------------|--000---------------------------|
Gb|--------------------------------|--------------------------------|
Db|------------------------------5-|------------------------5-5-5-5-|
Ab|1-------------------------0-0x3-|3---------------------0-3-3-3-3-|
Db|1-------------------------0-0x--|3---------------------0---------|



-Chorus-


(Electric Guitar 1)
Change My attempt,                  Good Intentions.
Db|--------------------------------|--------------------------------|
Db|--------------------------------|--------------------------------|
Gb|--------------------------------|--------------------------------|
Db|5-5-5-5-5-5-5-5-5-5-5-5-5-5-5-5-|5-5-5-5-5-5-5-5-5-5-5-5-5-5-5-5-|
Ab|5-5-5-5-5-5-5-5-5-5-5-5-5-5-5-5-|5-5-5-5-5-5-5-5-5-5-5-5-5-5-5-5-|
Db|5-5-5-5-5-5-5-5-5-5-5-5-5-5-5-5-|5-5-5-5-5-5-5-5-5-5-5-5-5-5-5-5-|
  {
(Electric Guitar 2)
Db|--------------------------------|--------------------------------|
Db|--------------------------------|--------------------------------|
Gb|--------------------------------|121212121212121212141414141515--|
Db|5-5-5-5-5-5-5-5-5-5-5-5-5-5-5-5-|x-x-x-x-x-x-x-x-x-x-x-x-x-x-x---|
Ab|5-5-5-5-5-5-5-5-5-5-5-5-5-5-5-5-|1010101010101010101212121213130-|
Db|5-5-5-5-5-5-5-5-5-5-5-5-5-5-5-5-|------------------------------0-|


(Electric Guitar 1)
Should I?                           Could I?
Db|--000---------------------------|--000---------------------------|
Db|--000---------------------------|--000---------------------------|
Gb|--------------------------------|--------------------------------|
Db|------------------------------5-|------------------------5-5-5---|
Ab|1-------------------------0-0x3-|3---------------------0-3-3-3-0-|
Db|1-------------------------0-0x--|3---------------------0-------0-|
  {
(Electric Guitar 2)
Db|--------------------------------|--------------------------------|
Db|--------------------------------|--------------------------------|
Gb|8-------------------------------|10------------------------------|
Db|--------------------------------|--------------------------------|
Ab|6-------------------------------|8-------------------------------|
Db|--------------------------------|--------------------------------|


(Electric Guitar 1)
Here we are with                    Your obsession
Db|--------------------------------|--------------------------------|
Db|--------------------------------|--------------------------------|
Gb|--------------------------------|--------------------------------|
Db|5-5-5-5-5-5-5-5-5-5-5-5-5-5-5-5-|5-5-5-5-5-5-5-5-5-5-5-5-5-5-5-5-|
Ab|5-5-5-5-5-5-5-5-5-5-5-5-5-5-5-5-|5-5-5-5-5-5-5-5-5-5-5-5-5-5-5-5-|
Db|5-5-5-5-5-5-5-5-5-5-5-5-5-5-5-5-|5-5-5-5-5-5-5-5-5-5-5-5-5-5-5-5-|
  {
(Electric Guitar 2)
Db|--------------------------------|--------------------------------|
Db|--------------------------------|--------------------------------|
Gb|--------------------------------|121212121212121212141414141515--|
Db|5-5-5-5-5-5-5-5-5-5-5-5-5-5-5-5-|x-x-x-x-x-x-x-x-x-x-x-x-x-x-x---|
Ab|5-5-5-5-5-5-5-5-5-5-5-5-5-5-5-5-|1010101010101010101212121213130-|
Db|5-5-5-5-5-5-5-5-5-5-5-5-5-5-5-5-|------------------------------0-|


(Electric Guitar 1)
Should I?                           Could I?
Db|--000---------------------------|--000---------------------------|
Db|--000---------------------------|--000---------------------------|
Gb|--------------------------------|--------------------------------|
Db|------------------------------5-|------------------------5-5-5---|
Ab|1-------------------------0-0x3-|3---------------------0-3-3-3-0-|
Db|1-------------------------0-0x--|3---------------------0-------0-|
  {
(Electric Guitar 2)
Db|--------------------------------|--------------------------------|
Db|--------------------------------|--------------------------------|
Gb|8-------------------------------|10------------------------------|
Db|--------------------------------|--------------------------------|
Ab|6-------------------------------|8-------------------------------|
Db|--------------------------------|--------------------------------|



-Verse 2-



(Electric Guitar 1)
Crowned (crowned) Hopeless (hopeless) The article read living wasteland this
Db|--------------------------------|--------------------------------|
Db|--------------------------------|--------------------------------|
Gb|--------3-3-3-2-2-2-------------|--------3-3-3-2-2-2-------------|
Db|5-5-5-5-------------3-3-3-3-3-3-|5-5-5-5-------------3-3-3-3-3-3-|
Ab|--------------------------------|--------------------------------|
Db|--------------------------------|--------------------------------|
  {
(Electric Guitar 2)
Db|--------------------------------|--------------------------------|
Db|--------------------------------|--------------------------------|
Gb|--------------------------------|--------------------------------|
Db|--------------------------------|--------------------------------|
Ab|5-5-5-5-5-5-5-5-5-5-5-5-5-8-8-8-|5-5-5-5-5-5-5-5-5-5-5-5-5-8-8-8\|
Db|5-5-5-5-5-5-5-5-5-5-5-5-5-8-8-8-|5-5-5-5-5-5-5-5-5-5-5-5-5-8-8-8\|



(Electric Guitar 1)
Time (time) You've tried (tried)    All that you can, turning you red but
Db|--------------------------------|--------------------------------|
Db|--------------------------------|--------------------------------|
Gb|--------2-2-2-3-3-3-3-3-3-3-3-3-|------5-5-5-5-------------------|
Db|1-1-1-1-------------------------|0-0-0---------7-7-7-7-7-7-7-7-7-|
Ab|--------------------------------|--------------------------------|
Db|--------------------------------|--------------------------------|
  {
(Electric Guitar 2)
Db|--------------------------------|--------------------------------|
Db|--------------------------------|--------------------------------|
Gb|--------------------------------|--------------------------------|
Db|--------------------------------|--------------------------------|
Ab|1-1-1-1-1-1-1-1-1-1-1-1-1-1-1-1-|0-0-0-0-0-0-0-0-0-3-3-3---------|
Db|1-1-1-1-1-1-1-1-1-1-1-1-1-1-1-1-|0-0-0-0-0-0-0-0-0-3-3-3-3-0-3p0-|


(Electric Guitar 1)
I (I) Will not (will not)           Hide you through this, I want you to help
Db|--------------------------------|--------------------------------|
Db|--------------------------------|--------------------------------|
Gb|--------3-3-3-2-2-2-------------|--------3-3-3-2-2-2-------------|
Db|5-5-5-5-------------3-3-3-3-3-3-|5-5-5-5-------------3-3-3-3-3-3-|
Ab|--------------------------------|--------------------------------|
Db|--------------------------------|--------------------------------|
  {
(Electric Guitar 2)
Db|--------------------------------|--------------------------0-0---|
Db|--------------------------------|--------------------------0-0---|
Gb|--------------------------------|--------------------------------|
Db|--------------------------------|--------------------------5-5-0-|
Ab|5-5-5-5-5-5-5-5-5-5-5-5-5-8-8-8-|5-5-5-5-5-5-5-5-5-5-5-5-5-5-5-0-|
Db|5-5-5-5-5-5-5-5-5-5-5-5-5-8-8-8-|5-5-5-5-5-5-5-5-5-5-5-5-5-5-5-0-|



-Prechorus-


(Electric Guitar)
Db|--000---------------------------|--000---------------------------|
Db|--000---------------------------|--000---------------------------|
Gb|--------------------------------|--------------------------------|
Db|------------------------------5-|------------------------5-5-5-5-|
Ab|1-------------------------0-0x3-|3---------------------0-3-3-3-3-|
Db|1-------------------------0-0x--|3---------------------0---------|



-Chorus-


(Electric Guitar 1)
Change My attempt,                  Good Intentions.
Db|--------------------------------|--------------------------------|
Db|--------------------------------|--------------------------------|
Gb|--------------------------------|--------------------------------|
Db|5-5-5-5-5-5-5-5-5-5-5-5-5-5-5-5-|5-5-5-5-5-5-5-5-5-5-5-5-5-5-5-5-|
Ab|5-5-5-5-5-5-5-5-5-5-5-5-5-5-5-5-|5-5-5-5-5-5-5-5-5-5-5-5-5-5-5-5-|
Db|5-5-5-5-5-5-5-5-5-5-5-5-5-5-5-5-|5-5-5-5-5-5-5-5-5-5-5-5-5-5-5-5-|
  {
(Electric Guitar 2)
Db|--------------------------------|--------------------------------|
Db|--------------------------------|--------------------------------|
Gb|--------------------------------|121212121212121212141414141515--|
Db|5-5-5-5-5-5-5-5-5-5-5-5-5-5-5-5-|x-x-x-x-x-x-x-x-x-x-x-x-x-x-x---|
Ab|5-5-5-5-5-5-5-5-5-5-5-5-5-5-5-5-|1010101010101010101212121213130-|
Db|5-5-5-5-5-5-5-5-5-5-5-5-5-5-5-5-|------------------------------0-|


(Electric Guitar 1)
Should I?                           Could I?
Db|--000---------------------------|--000---------------------------|
Db|--000---------------------------|--000---------------------------|
Gb|--------------------------------|--------------------------------|
Db|------------------------------5-|------------------------5-5-5---|
Ab|1-------------------------0-0x3-|3---------------------0-3-3-3-0-|
Db|1-------------------------0-0x--|3---------------------0-------0-|
  {
(Electric Guitar 2)
Db|--------------------------------|--------------------------------|
Db|--------------------------------|--------------------------------|
Gb|8-------------------------------|10------------------------------|
Db|--------------------------------|--------------------------------|
Ab|6-------------------------------|8-------------------------------|
Db|--------------------------------|--------------------------------|


(Electric Guitar 1)
Here we are with                    Your obsession
Db|--------------------------------|--------------------------------|
Db|--------------------------------|--------------------------------|
Gb|--------------------------------|--------------------------------|
Db|5-5-5-5-5-5-5-5-5-5-5-5-5-5-5-5-|5-5-5-5-5-5-5-5-5-5-5-5-5-5-5-5-|
Ab|5-5-5-5-5-5-5-5-5-5-5-5-5-5-5-5-|5-5-5-5-5-5-5-5-5-5-5-5-5-5-5-5-|
Db|5-5-5-5-5-5-5-5-5-5-5-5-5-5-5-5-|5-5-5-5-5-5-5-5-5-5-5-5-5-5-5-5-|
  {
(Electric Guitar 2)
Db|--------------------------------|--------------------------------|
Db|--------------------------------|--------------------------------|
Gb|--------------------------------|121212121212121212141414141515--|
Db|5-5-5-5-5-5-5-5-5-5-5-5-5-5-5-5-|x-x-x-x-x-x-x-x-x-x-x-x-x-x-x---|
Ab|5-5-5-5-5-5-5-5-5-5-5-5-5-5-5-5-|1010101010101010101212121213130-|
Db|5-5-5-5-5-5-5-5-5-5-5-5-5-5-5-5-|------------------------------0-|


(Electric Guitar 1)
Should I?                           Could I?
Db|--000---------------------------|--000---------------------------|
Db|--000---------------------------|--000---------------------------|
Gb|--------------------------------|--------------------------------|
Db|------------------------------5-|------------------------5-5-5---|
Ab|1-------------------------0-0x3-|3---------------------0-3-3-3-0-|
Db|1-------------------------0-0x--|3---------------------0-------0-|
  {
(Electric Guitar 2)
Db|--------------------------------|--------------------------------|
Db|--------------------------------|--------------------------------|
Gb|8-------------------------------|10------------------------------|
Db|--------------------------------|--------------------------------|
Ab|6-------------------------------|8-------------------------------|
Db|--------------------------------|--------------------------------|



-Bridge-


(Electric Guitar 1)
Db|--------------------------------|--------------------------------|
Db|--------------------------------|--------------------------------|
Gb|--------------------------------|--------------------------------|
Db|--------------------------------|--------------------------------|
Ab|5-5------------5-5--------------|1-1-1-1------1-1-1/3-3-3----3-0-|
Db|5-5------------5-5--------------|1-1-1-1------1-1-1/3-3-3----3-0-|
  {
(Electric Guitar 2)
Db|--------------------------------|--------------------------------|
Db|--------------------------------|--------------------------------|
Gb|--------------------------------|12121212-----12121210101010-1010|
Db|--------------------------------|------------------\-------------|
Ab|5-5------------5-5--------------|10101010-----1010108-8-8-8---8-8|
Db|5-5------------5-5--------------|--------------------------------|


(Electric Guitar)
Heave the silver, Hollow sliver     Passing through another victim
Db|--------------------------------|--------------------------------|
Db|--------------------------------|--------------------------------|
Gb|--------------------------------|--------------------------------|
Db|--------------------------------|--------------------------------|
Ab|5-5------------5-5--------------|1-1-1-1------1-1-1/3-3-3----3-0-|
Db|5-5------------5-5--------------|1-1-1-1------1-1-1/3-3-3----3-0-|


(Electric Guitar)
Turn and tremble, Be judgmental     Ignorant to all the symbols
Db|--------------------------------|--------------------------------|
Db|--------------------------------|--------------------------------|
Gb|--------------------------------|--------------------------------|
Db|--------------------------------|--------------------------------|
Ab|5-5------------5-5--------------|1-1-1-1------1-1-1/3-3-3----3-0-|
Db|5-5------------5-5--------------|1-1-1-1------1-1-1/3-3-3----3-0-|


(Electric Guitar)
Blind the face with beauty paste    Eventually you'll one day know.
Db|--------------------------------|--------------------------------|
Db|--------------------------------|--------------------------------|
Gb|--------------------------------|--------------------------------|
Db|--------------------------------|--------------------------------|
Ab|5-5------------5-5--------------|1-1-1-1------1-1-1/3-3-3----3-0-|
Db|5-5------------5-5--------------|1-1-1-1------1-1-1/3-3-3----3-0-|


(Clean Electric Guitar)
Change my Attempt,                  Good Intentions
Db|0-------------------------------|--------------------------------|
Db|0-------------------------------|--------------------------------|
Gb|--------------------------------|--------------------------------|
Db|5-------------------------------|--------------------------------|
Ab|5-------------------------------|--------------------------------|
Db|5-------------------------------|--------------------------------|

(Clean Electric Guitar)
Limbs tied,                         Sking tight.
Db|--0-----------------------------|--0-----------------------------|
Db|--0-----------------------------|--0-----------------------------|
Gb|--------------------------------|--------------------------------|
Db|--------------------------------|--------------------------------|
Ab|1-----------------------------1/|3-------------------------------|
Db|1-----------------------------1/|3-------------------------------|

(Clean Electric Guitar)
Self-inflicted,                     His perdition.
Db|0-------------------------------|--------------------------------|
Db|0-------------------------------|--------------------------------|
Gb|--------------------------------|--------------------------------|
Db|5-------------------------------|--------------------------------|
Ab|5-------------------------------|--------------------------------|
Db|5-------------------------------|--------------------------------|


(Electric Guitar)
Should I?                           Could I?
Db|--000---------------------------|--000---------------------------|
Db|--000---------------------------|--000---------------------------|
Gb|--------------------------------|--------------------------------|
Db|------------------------------5-|------------------------5-5-5-5-|
Ab|1-------------------------0-0x3-|3---------------------0-3-3-3-3-|
Db|1-------------------------0-0x--|3---------------------0---------|



-Chorus-



(Electric Guitar 1)
Change My attempt,                  Good Intentions.
Db|--------------------------------|--------------------------------|
Db|--------------------------------|--------------------------------|
Gb|--------------------------------|--------------------------------|
Db|5-5-5-5-5-5-5-5-5-5-5-5-5-5-5-5-|5-5-5-5-5-5-5-5-5-5-5-5-5-5-5-5-|
Ab|5-5-5-5-5-5-5-5-5-5-5-5-5-5-5-5-|5-5-5-5-5-5-5-5-5-5-5-5-5-5-5-5-|
Db|5-5-5-5-5-5-5-5-5-5-5-5-5-5-5-5-|5-5-5-5-5-5-5-5-5-5-5-5-5-5-5-5-|
  {
(Electric Guitar 2)
Db|--------------------------------|--------------------------------|
Db|--------------------------------|--------------------------------|
Gb|--------------------------------|121212121212121212141414141515--|
Db|5-5-5-5-5-5-5-5-5-5-5-5-5-5-5-5-|x-x-x-x-x-x-x-x-x-x-x-x-x-x-x---|
Ab|5-5-5-5-5-5-5-5-5-5-5-5-5-5-5-5-|1010101010101010101212121213130-|
Db|5-5-5-5-5-5-5-5-5-5-5-5-5-5-5-5-|------------------------------0-|


(Electric Guitar)
Should I?                           Could I?
Db|--000---------------------------|--000---------------------------|
Db|--000---------------------------|--000---------------------------|
Gb|--------------------------------|--------------------------------|
Db|------------------------------5-|------------------------5-5-5---|
Ab|1-------------------------0-0x3-|3---------------------0-3-3-3-0-|
Db|1-------------------------0-0x--|3---------------------0-------0-|
  {
(Electric Guitar 2)
Db|--------------------------------|--------------------------------|
Db|--------------------------------|--------------------------------|
Gb|8-------------------------------|10------------------------------|
Db|--------------------------------|--------------------------------|
Ab|6-------------------------------|8-------------------------------|
Db|--------------------------------|--------------------------------|




-Outro-



(Electric Guitar)
Db|--------------------------------|--------------------------------|
Db|--------------------------------|0--0--------0--------0--0-0-0---|
Gb|--------------------------------|--------------------------------|
Db|--------------------------------|5--5--------5--------5--5-5-5---|
Ab|5-5-5-5-5-5-55555-5-5-5-5-5-5555|5--5--------5--------5--5-5-5-0-|
Db|5-5-5-5-5-5-55555-5-5-5-5-5-5555|5--5--------5--------5--5-5-5-0-|

(Electric Guitar)
Should I?                           Could I?
Db|--000---------------------------|--000---------------------------|
Db|--000---------------------------|--000---------------------------|
Gb|--------------------------------|--------------------------------|
Db|------------------------------5-|--------------------------------|
Ab|1-------------------------0-0x3-|3-----------------------3-3-3-0-|
Db|1-------------------------0-0x--|3-----------------------3-3-3-0-|

(Electric Guitar)
Db|--------------------------------|
Db|--------------------------------|
Gb|--------------------------------|
Db|--------------------------------|
Ab|5-5-----------------------------|
Db|5-5-----------------------------|
Tap to rate this tab
 
# A B C D E F G H I J K L M N O P Q R S T U V W X Y Z