Song name
# A B C D E F G H I J K L M N O P Q R S T U V W X Y Z

10 Years - Wasteland Acoustic tab

song : Wasteland Uplugged
Artist: Ten years
Tabbed by: MetalSlayer09
Tuning: (low to high) Db Ab Db Gb Db Db

Here ya go, I believe this is the most correct version of this out there, I watched the video
to figure out a lot of it, so have fun. Also I know its a wierd tuning but thats the only
tuning that sounds right at all so it's gotta be it.




intro.
[---------------0------------------------------0---------------------------------0--------------|
[-----------------------------------------------------------------------------------------------|
[--------2---------2-----2-----------2--------------2-----2---------------2----------2-----2----|
[-----0----0----------0-----------0------0-------------0---------------0----0-----------0-------|
[---1--------------------------3------------------------------------0---------------------------|
[-------------------------------------------------------------------0---------------------------|

[---------------0------------------------------0---------------------------------0--------------|
[-----------------------------------------------------------------------------------------------|
[--------2---------2-----2-----------2--------------2-----2---------------2----------2-----2----|
[-----0----0----------0-----------0------0-------------0---------------0----0-----------0-------|
[---1--------------------------3------------------------------------0---------------------------|
[-------------------------------------------------------------------0---------------------------|
[
[-----------------------------------------------------------------------------------------------|
[-----------------------------------------------------------------------------------------------|
[---7---------------------------9----------------------------------2----------------------------|
[---0---------------------------0----------------------------------0----------------------------|
[-----------------------------------------------------------------------------------------------|
[-----------------------------------------------------------------------------------------------|

[---------------0------------------------------0---------------------------------0--------------|
[-----------------------------------------------------------------------------------------------|
[--------2---------2-----2-----------2--------------2-----2---------------2----------2-----2----|
[-----0----0----------0-----------0------0-------------0---------------0----0-----------0-------|
[---1--------------------------3------------------------------------0---------------------------|
[-------------------------------------------------------------------0---------------------------|
[
[-----------------------------------------------------------------------------------------------|
[-----------------------------------------------------------------------------------------------|
[---7---------------------------9----------------------------------2----------------------------|
[---0---------------------------0----------------------------------0----------------------------|
[-----------------------------------------------------------------------------------------------|
[-----------------------------------------------------------------------------------------------|

[---------------0------------------------------0---------------------------------0--------------|
[-----------------------------------------------------------------------------------------------|
[--------2---------2-----2-----------2--------------2-----2---------------2----------2-----2----|
[-----0----0----------0-----------0------0-------------0---------------0----0-----------0-------|
[---1--------------------------3------------------------------------0---------------------------|
[-------------------------------------------------------------------0---------------------------|
[
[-------------------------------------------------------------------0---------------------------|
[-------------------------------------------------------------------0---------------------------|
[---7---------------------------5-----------------------------------2---------------------------|
[---0---------------------------0-----------------------------------0---------------------------|
[-----------------------------------------------------------------------------------------------|
[-----------------------------------------------------------------------------------------------|

[---------------0------------------------------0---------------------------------0--------------|
[-----------------------------------------------------------------------------------------------|
[--------2---------2-----2-----------2--------------2-----2---------------2----------2-----2----|
[-----0----0----------0-----------0------0-------------0---------------0----0-----------0-------|
[---1--------------------------3------------------------------------0---------------------------|
[-------------------------------------------------------------------0---------------------------|
[
[----12---12---12--12----------10-----10-----10------10-------------7-----7-----7-----7---------|
[-----------------------------------------------------------------------------------------------|
[-----------------------------------------------------------------------------------------------|
[-----------------------------------------------------------------------------------------------|
[-----------------------------------------------------------------------------------------------|
[-----------------------------------------------------------------------------------------------|

[---------------0------------------------------0---------------------------------0--------------|
[-----------------------------------------------------------------------------------------------|
[--------2---------2-----2-----------2--------------2-----2---------------2----------2-----2----|
[-----0----0----------0-----------0------0-------------0---------------0----0-----------0-------|
[---1--------------------------3------------------------------------0---------------------------|
[-------------------------------------------------------------------0---------------------------|
[
[----12---12---12--12----------10-----10-----10------10-------------7-----7-----7-----7---------|
[-----------------------------------------------------------------------------------------------|
[-----------------------------------------------------------------------------------------------|
[-----------------------------------------------------------------------------------------------|
[-----------------------------------------------------------------------------------------------|
[-----------------------------------------------------------------------------------------------|

[---------------0------------------------------0---------------------------------0--------------|
[-----------------------------------------------------------------------------------------------|
[--------2---------2-----2-----------2--------------2-----2---------------2----------2----------|
[-----0----0----------0-----------0------0-------------0---------------0----0-----------0-------|
[---1--------------------------3------------------------------------0---------------------------|
[-------------------------------------------------------------------0---------------------------|
[
[----12---12---12--12----------14-----14-----14------14-------------7-----7-----7-----7---------|
[-----------------------------------------------------------------------------------------------|
[-----------------------------------------------------------------------------------------------|
[-----------------------------------------------------------------------------------------------|
[-----------------------------------------------------------------------------------------------|
[-----------------------------------------------------------------------------------------------|


[------------------0-----------------------------------0---------------------------------------|
[------------------------------------------------------0---------------------------------------|
[----------2-----------2------2--------------2---------2---------------------------------------|
[-------0-----0-----------0---------------0-----0------0---------------------------------------|
[---1---------------------------------3----------------3---------------------------------------|
[----------------------------------------------------------------------------------------------|
[
[---12---12---12-----12---------------14---------------14--------------------------------------|
[----------------------------------------------------------------------------------------------|
[----------------------------------------------------------------------------------------------|
[----------------------------------------------------------------------------------------------|
[----------------------------------------------------------------------------------------------|

preVerse
				Change my attempt good intentions

[--------0------------0------0----------------------------------|
[--------0------------0------0----------------------------------|
[----------------------------0----------------------------------|
[--1----------1/3------------5----------------------------------|
[--1----------1/3------------5----------------------------------|
[--1----------1/3------------5----------------------------------|




[----0---0-0-0----------0--0-0-0----------0--0-0-0---------0---0-0-0-------|
[----0---0-0-0----------0--0-0-0----------0--0-0-0---------0---0-0-0-------|
[--------------------------------------------------------------------------|
[-1----------------1-1----------------1/3-------------3-3------------------|
[-1----------------1-1----------------1/3-------------3-3------------------|
[-1----------------1-1----------------1/3-------------3-3------------------|


Verse

   crouched           over        you were not there living in fear but
[-----------------------------------------------------------------------|
[-----------------------------------------------------------------------|
[-----------------------------------------------------------------------|
[-5-5-5-5-8-8-8-8-7-7-7-7-3-3-3-3-5-5-5-5-8-8-8-8-7-7-7-7-3-3-3-3-------|
[-----------------------------------------------------------------------|
[-----------------------------------------------------------------------|
[
[-----------------------------------------------------------------------|
[-----------------------------------------------------------------------|
[-----------------------------------------------------------------------|
[-----------------------------------------------------------------------|
[-5-5-5-5-5-5-5-5-5-5-5-5-5-8-8-8-5-5-5-5-5-5-5-5-5-5-5-5-5-8-8-8-------|
[-5-5-5-5-5-5-5-5-5-5-5-5-5-8-8-8-5-5-5-5-5-5-5-5-5-5-5-5-5-8-8-8-------|


  signs               were not    really that scarce obvious tears but
[-----------------------------------------------------------------------|
[-----------------------------------------------------------------------|
[-----------------------------------------5-5-5-5-2-2-2-2-2-2-2-2-2-2-2-|
[-1-1-1-1-7-7-7-7-8-8-8-8-8-8-8-8-0-0-0-0-------------------------------|
[-----------------------------------------------------------------------|
[-----------------------------------------------------------------------|
[
[-----------------------------------------------------------------------|
[-----------------------------------------------------------------------|
[-----------------------------------------------------------------------|
[-----------------------------------------------------------------------|
[-1-1-1-1-1-1-1-1-1-1-1-1-1-1-1-1-0-0-0-0-0-0-0-0-0-0-0-0-0-0-3-3-0-3-0-|
[-1-1-1-1-1-1-1-1-1-1-1-1-1-1-1-1-0-0-0-0-0-0-0-0-0-0-0-0-0-0-3-3-0-3-0-|


  I                  will not     hide you through this I won't you to help them
[-----------------------------------------------------------------------|
[-----------------------------------------------------------------------|
[-----------------------------------------------------------------------|
[-5-5-5-5-8-8-8-8-7-7-7-7-3-3-3-3-5-5-5-5-8-8-8-8-7-7-7-7-3-3-3-3-------|
[-----------------------------------------------------------------------|
[-----------------------------------------------------------------------|
[
[-----------------------------------------------------------------------|
[-----------------------------------------------------------------------|
[-----------------------------------------------------------------------|
[-----------------------------------------------------------------------|
[-5-5-5-5-5-5-5-5-5-5-5-5-5-8-8-8-5-5-5-5-5-5-5-5-5-5-5-5-5-8-8-8-------|
[-5-5-5-5-5-5-5-5-5-5-5-5-5-8-8-8-5-5-5-5-5-5-5-5-5-5-5-5-5-8-8-8-------|


  pleasse         see              the bleeding heart perched on my shirt
[-----------------------------------------------------------------------|
[-----------------------------------------------------------------------|
[-----------------------------------------5-5-5-5-2-2-2-2-2-2-2-2-2-2-2-|
[-1-1-1-1-7-7-7-7-8-8-8-8-8-8-8-8-0-0-0-0-------------------------------|
[-----------------------------------------------------------------------|
[-----------------------------------------------------------------------|
[
[-----------------------------------------------------------------------|
[-----------------------------------------------------------------------|
[-----------------------------------------------------------------------|
[-----------------------------------------------------------------------|
[-1-1-1-1-1-1-1-1-1-1-1-1-1-1-1-1-0-0-0-0-0-0-0-0-0-0-0-0-0-0-3-3-0-3-0-|
[-1-1-1-1-1-1-1-1-1-1-1-1-1-1-1-1-0-0-0-0-0-0-0-0-0-0-0-0-0-0-3-3-0-3-0-|


  die             withdraw          hide in cold sweat quievering lips ig-
[-----------12------------------------------------------------------|
[-------------------------------------------------------------------|
[-12----------------------------------------------------------------|
[-------------------------------------------------------------------|
[-------------------------------------------------------------------|
[-------------------------------------------------------------------|
[
[-------------------------------------------------------------------|
[-------------------------------------------------------------------|
[-------------------------------------------------------------------|
[-5-5-5-5-8-8-8-8-7-7-7-7-3-3-3-3-5-5-5-5-8-8-8-8-7-7-7-7-3-3-3-3---|
[-------------------------------------------------------------------|
[-------------------------------------------------------------------|
[
[-------------------------------------------------------------------|
[-------------------------------------------------------------------|
[-------------------------------------------------------------------|
[-------------------------------------------------------------------|
[-5-5-5-5-5-5-5-5-5-5-5-5-5-8-8-8-5-5-5-5-5-5-5-5-5-5-5-5-5-8-8-8---|
[-5-5-5-5-5-5-5-5-5-5-5-5-5-8-8-8-5-5-5-5-5-5-5-5-5-5-5-5-5-8-8-8---|


  -nore             remorse     naming a kid living wasteland  this
[----12------------------10---------------------------------------------|
[-----------------------------------------------------------------------|
[-----------------------------10----------------------------------------|
[-----------------------------------------------------------------------|
[-----------------------------------------------------------------------|
[-----------------------------------------------------------------------|
[
[-----------------------------------------------------------------------|
[-----------------------------------------------------------------------|
[-----------------------------------------5-5-5-5-2-2-2-2-2-2-2-2-2-2-2-|
[-1-1-1-1-7-7-7-7-8-8-8-8-8-8-8-8-0-0-0-0-------------------------------|
[-----------------------------------------------------------------------|
[-----------------------------------------------------------------------|
[
[-----------------------------------------------------------------------|
[-----------------------------------------------------------------------|
[-----------------------------------------------------------------------|
[-----------------------------------------------------------------------|
[-1-1-1-1-1-1-1-1-1-1-1-1-1-1-1-1-0-0-0-0-0-0-0-0-0-0-0-0-0-0-3-3-0-3-0-|
[-1-1-1-1-1-1-1-1-1-1-1-1-1-1-1-1-0-0-0-0-0-0-0-0-0-0-0-0-0-0-3-3-0-3-0-|




  time             you've tried   all that you can turning you  red---
[-----------12-----------------------------------------------------------|
[------------------------------------------------------------------------|
[-12---------------------------------------------------------------------|
[------------------------------------------------------------------------|
[------------------------------------------------------------------------|
[------------------------------------------------------------------------|
[
[------------------------------------------------------------------------|
[------------------------------------------------------------------------|
[------------------------------------------------------------------------|
[-5-5-5-5-8-8-8-8-7-7-7-7-3-3-3-3-5-5-5-5-8-8-8-8-7-7-7-7-3-3-3-3--------|
[------------------------------------------------------------------------|
[------------------------------------------------------------------------|
[
[------------------------------------------------------------------------|
[------------------------------------------------------------------------|
[------------------------------------------------------------------------|
[------------------------------------------------------------------------|
[-5-5-5-5-5-5-5-5-5-5-5-5-5-8-8-8-5-5-5-5-5-5-5-5-5-5-5-5-5-8-8-8--------|
[-5-5-5-5-5-5-5-5-5-5-5-5-5-8-8-8-5-5-5-5-5-5-5-5-5-5-5-5-5-8-8-8--------|





Prechorus/chorus

  red-----
[----0---0-0-0----------0--0-0-0----------0--0-0-0---------0--0-0-0------------|
[----0---0-0-0----------0--0-0-0----------0--0-0-0---------0--0-0-0------------|
[------------------------------------------------------------------------------|
[-1----------------1-1----------------1/3--------------3-3---------------------|
[-1----------------1-1----------------1/3--------------3-3---------------------|
[-1----------------1-1----------------1/3--------------3-3---------------------|


  change               my       attempt        good       intentions
[-0--0--0--0--0--0--0--0--0--0--0--0--0--0--0--0--0--0--0--0--0--0--0--0--0--0--0--0--0--0--0--0--|
[-0--0--0--0--0--0--0--0--0--0--0--0--0--0--0--0--0--0--0--0--0--0--0--0--0--0--0--0--0--0--0--0--|
[-x--x--x--x--x--x--x--x--x--x--x--x--x--x--x--x--x--x--x--x--x--x--x--x--x--x--x--x--x--x--x--x--|
[-5--5--5--5--5--5--5--5--5--5--5--5--5--5--5--5--5--5--5--5--5--5--5--5--5--5--5--5--5--5--5--5--|
[-5--5--5--5--5--5--5--5--5--5--5--5--5--5--5--5--5--5--5--5--5--5--5--5--5--5--5--5--5--5--5--5--|
[-5--5--5--5--5--5--5--5--5--5--5--5--5--5--5--5--5--5--5--5--5--5--5--5--5--5--5--5--5--5--5--5--|
[
[-------------------------------------------------------------------------------------------------|
[-------------------------------------------------------------------------------------------------|
[-------------------------------------------------------------------------------------------------|
[------------------------------------------------12-12-12-12-12-12-12-12-14-14-14-14-15-15-15-15--|
[-------------------------------------------------------------------------------------------------|
[------------------------------------------------10-10-10-10-10-10-10-10-12-12-12-12-13-13-13-13--|


  should             I                   Could          I
[----0---0-0-0----------0--0-0-0----------0--0-0-0---------0--0-0-0------------|
[----0---0-0-0----------0--0-0-0----------0--0-0-0---------0--0-0-0------------|
[------------------------------------------------------------------------------|
[-1----------------1-1----------------1/3--------------3-3---------------------|
[-1----------------1-1----------------1/3--------------3-3---------------------|
[-1----------------1-1----------------1/3--------------3-3---------------------|


  here               we              are with     your     obsession
[-0--0--0--0--0--0--0--0--0--0--0--0--0--0--0--0--0--0--0--0--0--0--0--0--0--0--0--0--0--0--0--0--|
[-0--0--0--0--0--0--0--0--0--0--0--0--0--0--0--0--0--0--0--0--0--0--0--0--0--0--0--0--0--0--0--0--|
[-x--x--x--x--x--x--x--x--x--x--x--x--x--x--x--x--x--x--x--x--x--x--x--x--x--x--x--x--x--x--x--x--|
[-5--5--5--5--5--5--5--5--5--5--5--5--5--5--5--5--5--5--5--5--5--5--5--5--5--5--5--5--5--5--5--5--|
[-5--5--5--5--5--5--5--5--5--5--5--5--5--5--5--5--5--5--5--5--5--5--5--5--5--5--5--5--5--5--5--5--|
[-5--5--5--5--5--5--5--5--5--5--5--5--5--5--5--5--5--5--5--5--5--5--5--5--5--5--5--5--5--5--5--5--|
[
[-------------------------------------------------------------------------------------------------|
[-------------------------------------------------------------------------------------------------|
[-------------------------------------------------------------------------------------------------|
[------------------------------------------------12-12-12-12-12-12-12-12-14-14-14-14-15-15-15-15--|
[-------------------------------------------------------------------------------------------------|
[------------------------------------------------10-10-10-10-10-10-10-10-12-12-12-12-13-13-13-13--|


  should             I                Could             I
[----0---0-0-0----------0--0-0-0----------0--0-0-0---------0--0-0-0------------|
[----0---0-0-0----------0--0-0-0----------0--0-0-0---------0--0-0-0------------|
[------------------------------------------------------------------------------|
[-1----------------1-1----------------1/3--------------3-3---------------------|
[-1----------------1-1----------------1/3--------------3-3---------------------|
[-1----------------1-1----------------1/3--------------3-3---------------------|

Verse

  crowned        hopeless        the article read living wasteland this
[------------------------------------------------------------------|
[------------------------------------------------------------------|
[------------------------------------------------------------------|
[-5-5-5-5-8-8-8-8-7-7-7-7-3-3-3-3-5-5-5-5-8-8-8-8-7-7-7-7-3-3-3-3--|
[------------------------------------------------------------------|
[------------------------------------------------------------------|
[
[------------------------------------------------------------------|
[------------------------------------------------------------------|
[------------------------------------------------------------------|
[------------------------------------------------------------------|
[-5-5-5-5-5-5-5-5-5-5-5-5-5-8-8-8-5-5-5-5-5-5-5-5-5-5-5-5-5-8-8-8--|
[-5-5-5-5-5-5-5-5-5-5-5-5-5-8-8-8-5-5-5-5-5-5-5-5-5-5-5-5-5-8-8-8--|


  time            you've tried    all that you can turning you read but
[------------------------------------------------------------------------------------|
[------------------------------------------------------------------------------------|
[-----------------------------------------5-5-5-5-2-2-2-2-2-2-2-2-2-2-2--------------|
[-1-1-1-1-7-7-7-7-8-8-8-8-8-8-8-8-0-0-0-0--------------------------------------------|
[------------------------------------------------------------------------------------|
[------------------------------------------------------------------------------------|
[
[------------------------------------------------------------------------------------|
[------------------------------------------------------------------------------------|
[------------------------------------------------------------------------------------|
[------------------------------------------------------------------------------------|
[-1-1-1-1-1-1-1-1-1-1-1-1-1-1-1-1-0-0-0-0-0-0-0-0-0-0-0-0-0-0-3-3-0-3-0--------------|
[-1-1-1-1-1-1-1-1-1-1-1-1-1-1-1-1-0-0-0-0-0-0-0-0-0-0-0-0-0-0-3-3-0-3-0--------------|


  I              won't hide       you through this I want you to help---
[-----------12-----------------------------------------------------------------------|
[------------------------------------------------------------------------------------|
[-12---------------------------------------------------------------------------------|
[------------------------------------------------------------------------------------|
[------------------------------------------------------------------------------------|
[------------------------------------------------------------------------------------|
[
[------------------------------------------------------------------------------------|
[------------------------------------------------------------------------------------|
[------------------------------------------------------------------------------------|
[-5-5-5-5-8-8-8-8-7-7-7-7-3-3-3-3-5-5-5-5-8-8-8-8-7-7-7-7-3-3-3-3--------------------|
[------------------------------------------------------------------------------------|
[------------------------------------------------------------------------------------|
[
[------------------------------------------------------------------------------------|
[------------------------------------------------------------------------------------|
[------------------------------------------------------------------------------------|
[------------------------------------------------------------------------------------|
[-5-5-5-5-5-5-5-5-5-5-5-5-5-8-8-8-5-5-5-5-5-5-5-5-5-5-5-5-5-8-8-8--------------------|
[-5-5-5-5-5-5-5-5-5-5-5-5-5-8-8-8-5-5-5-5-5-5-5-5-5-5-5-5-5-8-8-8--------------------|




Prechorus/chorus

  help-----
[----0---0-0-0----------0--0-0-0----------0--0-0-0---------0--0-0-0------------|
[----0---0-0-0----------0--0-0-0----------0--0-0-0---------0--0-0-0------------|
[------------------------------------------------------------------------------|
[-1----------------1-1----------------1/3--------------3-3---------------------|
[-1----------------1-1----------------1/3--------------3-3---------------------|
[-1----------------1-1----------------1/3--------------3-3---------------------|


  change               my         attempt        good       intentions
[-0--0--0--0--0--0--0--0--0--0--0--0--0--0--0--0--0--0--0--0--0--0--0--0--0--0--0--0--0--0--0--0--|
[-0--0--0--0--0--0--0--0--0--0--0--0--0--0--0--0--0--0--0--0--0--0--0--0--0--0--0--0--0--0--0--0--|
[-x--x--x--x--x--x--x--x--x--x--x--x--x--x--x--x--x--x--x--x--x--x--x--x--x--x--x--x--x--x--x--x--|
[-5--5--5--5--5--5--5--5--5--5--5--5--5--5--5--5--5--5--5--5--5--5--5--5--5--5--5--5--5--5--5--5--|
[-5--5--5--5--5--5--5--5--5--5--5--5--5--5--5--5--5--5--5--5--5--5--5--5--5--5--5--5--5--5--5--5--|
[-5--5--5--5--5--5--5--5--5--5--5--5--5--5--5--5--5--5--5--5--5--5--5--5--5--5--5--5--5--5--5--5--|
[
[-------------------------------------------------------------------------------------------------|
[-------------------------------------------------------------------------------------------------|
[-------------------------------------------------------------------------------------------------|
[------------------------------------------------12-12-12-12-12-12-12-12-14-14-14-14-15-15-15-15--|
[-------------------------------------------------------------------------------------------------|
[------------------------------------------------10-10-10-10-10-10-10-10-12-12-12-12-13-13-13-13--|


  should             I                Could             I
[----0---0-0-0----------0--0-0-0----------0--0-0-0---------0--0-0-0------------|
[----0---0-0-0----------0--0-0-0----------0--0-0-0---------0--0-0-0------------|
[------------------------------------------------------------------------------|
[-1----------------1-1----------------1/3--------------3-3---------------------|
[-1----------------1-1----------------1/3--------------3-3---------------------|
[-1----------------1-1----------------1/3--------------3-3---------------------|


  here               we              are with     your     obsession
[-0--0--0--0--0--0--0--0--0--0--0--0--0--0--0--0--0--0--0--0--0--0--0--0--0--0--0--0--0--0--0--0--|
[-0--0--0--0--0--0--0--0--0--0--0--0--0--0--0--0--0--0--0--0--0--0--0--0--0--0--0--0--0--0--0--0--|
[-x--x--x--x--x--x--x--x--x--x--x--x--x--x--x--x--x--x--x--x--x--x--x--x--x--x--x--x--x--x--x--x--|
[-5--5--5--5--5--5--5--5--5--5--5--5--5--5--5--5--5--5--5--5--5--5--5--5--5--5--5--5--5--5--5--5--|
[-5--5--5--5--5--5--5--5--5--5--5--5--5--5--5--5--5--5--5--5--5--5--5--5--5--5--5--5--5--5--5--5--|
[-5--5--5--5--5--5--5--5--5--5--5--5--5--5--5--5--5--5--5--5--5--5--5--5--5--5--5--5--5--5--5--5--|
[
[-------------------------------------------------------------------------------------------------|
[-------------------------------------------------------------------------------------------------|
[-------------------------------------------------------------------------------------------------|
[------------------------------------------------12-12-12-12-12-12-12-12-14-14-14-14-15-15-15-15--|
[-------------------------------------------------------------------------------------------------|
[------------------------------------------------10-10-10-10-10-10-10-10-12-12-12-12-13-13-13-13--|


  should             I                Could             I
[----0---0-0-0----------0--0-0-0----------0--0-0-0---------0--0-0-0------------|
[----0---0-0-0----------0--0-0-0----------0--0-0-0---------0--0-0-0------------|
[------------------------------------------------------------------------------|
[-1----------------1-1----------------1/3--------------3-3---------------------|
[-1----------------1-1----------------1/3--------------3-3---------------------|
[-1----------------1-1----------------1/3--------------3-3---------------------|

interlude


[--0--0-----------------0--0-----------------0---0--0---0--0--0-0---0--0---0--0--0-----|
[--0--0-----------------0--0-----------------0---0--0---0--0--0-0---0--0---0--0--0-----|
[--x--x-----------------x--x-----------------x---x--x---x--x--x-x---x--x---x--x--x-----|
[--5--5--x-x-x---x-x----5--5--x-x-x--x-x-----1---1--1---1--1--1\3---3--3---3--3--3-----|
[--5--5--x-x-x---x-x----5--5--x-x-x--x-x-----1---1--1---1--1--1\3---3--3---3--3--3-----|
[--5--5--x-x-x---x-x----5--5--x-x-x--x-x-----1---1--1---1--1--1\3---3--3---3--3--3-----|
[
[--------------------------------------------------------------------------------------|
[--------------------------------------------------------------------------------------|
[--------------------------------------------12--12-12--12-12-12/10-10-10-10-10-10-----|
[--------------------------------------------------------------------------------------|
[--------------------------------------------10--10-10--10-10-10/8--8--8--8--8--8------|
[--------------------------------------------------------------------------------------|


   heave the silver     hollow sliver        piercing through another victom
[--0--0-----------------0--0-----------------0---0--0---0--0--0-0---0--0---0--0--0-----|
[--0--0-----------------0--0-----------------0---0--0---0--0--0-0---0--0---0--0--0-----|
[--x--x-----------------x--x-----------------x---x--x---x--x--x-x---x--x---x--x--x-----|
[--5--5--x-x-x---x-x----5--5--x-x-x--x-x-----1---1--1---1--1--1\3---3--3---3--3--3-----|
[--5--5--x-x-x---x-x----5--5--x-x-x--x-x-----1---1--1---1--1--1\3---3--3---3--3--3-----|
[--5--5--x-x-x---x-x----5--5--x-x-x--x-x-----1---1--1---1--1--1\3---3--3---3--3--3-----|
[
[--------------------------------------------------------------------------------------|
[--------------------------------------------------------------------------------------|
[--------------------------------------------12--12-12--12-12-12/10-10-10-10-10-10-----|
[--------------------------------------------------------------------------------------|
[--------------------------------------------10--10-10--10-10-10/8--8--8--8--8--8------|
[--------------------------------------------------------------------------------------|


  turn and  tremble     be judgemental       ignorant to all  the symbols
[--0--0-----------------0--0-----------------0---0--0---0--0--0-0---0--0---0--0--0-----|
[--0--0-----------------0--0-----------------0---0--0---0--0--0-0---0--0---0--0--0-----|
[--x--x-----------------x--x-----------------x---x--x---x--x--x-x---x--x---x--x--x-----|
[--5--5--x-x-x---x-x----5--5--x-x-x--x-x-----1---1--1---1--1--1\3---3--3---3--3--3-----|
[--5--5--x-x-x---x-x----5--5--x-x-x--x-x-----1---1--1---1--1--1\3---3--3---3--3--3-----|
[--5--5--x-x-x---x-x----5--5--x-x-x--x-x-----1---1--1---1--1--1\3---3--3---3--3--3-----|
[
[--------------------------------------------------------------------------------------|
[--------------------------------------------------------------------------------------|
[--------------------------------------------12--12-12--12-12-12/10-10-10-10-10-10-----|
[--------------------------------------------------------------------------------------|
[--------------------------------------------10--10-10--10-10-10/8--8--8--8--8--8------|
[--------------------------------------------------------------------------------------|


   blind the face with  beauty paste         eventually you'll one day know
[--0--0-----------------0--0-----------------0---0--0---0--0--0-0---0--0---0--0--0-----0--|
[--0--0-----------------0--0-----------------0---0--0---0--0--0-0---0--0---0--0--0-----0--|
[--x--x-----------------x--x-----------------x---x--x---x--x--x-x---x--x---x--x--x-----x--|
[--5--5--x-x-x---x-x----5--5--x-x-x--x-x-----1---1--1---1--1--1\3---3--3---3--3--3-----5--|
[--5--5--x-x-x---x-x----5--5--x-x-x--x-x-----1---1--1---1--1--1\3---3--3---3--3--3-----5--|
[--5--5--x-x-x---x-x----5--5--x-x-x--x-x-----1---1--1---1--1--1\3---3--3---3--3--3-----5--|
[
[-----------------------------------------------------------------------------------------|
[-----------------------------------------------------------------------------------------|
[--------------------------------------------12--12-12--12-12-12/10-10-10-10-10-10--------|
[-----------------------------------------------------------------------------------------|
[--------------------------------------------10--10-10--10-10-10/8--8--8--8--8--8---------|
[-----------------------------------------------------------------------------------------|

change my attempt good intentions

   limbs tied   skin  tight    self inflicted his perdition
[--------0------------0------0----------------------------------|
[--------0------------0------0----------------------------------|
[----------------------------x----------------------------------|
[--1----------1/3------------5----------------------------------|
[--1----------1/3------------5----------------------------------|
[--1----------1/3------------5----------------------------------|




Outro

  should             I                Could             I
[----0---0-0-0----------0--0-0-0----------0--0-0-0--------0--0-0-0-------|
[----0---0-0-0----------0--0-0-0----------0--0-0-0--------0--0-0-0-------|
[------------------------------------------------------------------------|
[-1----------------1-1----------------1/3--------------3-3---------------|
[-1----------------1-1----------------1/3--------------3-3---------------|
[-1----------------1-1----------------1/3--------------3-3---------------|



  change       my          attempt                good       intentions
[-0--0--0--0--0--0--0--0--0--0--0--0--0--0--0--0--0--0--0--0--0--0--0--0--0--0--0--0--0--0--0--0--|
[-0--0--0--0--0--0--0--0--0--0--0--0--0--0--0--0--0--0--0--0--0--0--0--0--0--0--0--0--0--0--0--0--|
[-x--x--x--x--x--x--x--x--x--x--x--x--x--x--x--x--x--x--x--x--x--x--x--x--x--x--x--x--x--x--x--x--|
[-5--5--5--5--5--5--5--5--5--5--5--5--5--5--5--5--5--5--5--5--5--5--5--5--5--5--5--5--5--5--5--5--|
[-5--5--5--5--5--5--5--5--5--5--5--5--5--5--5--5--5--5--5--5--5--5--5--5--5--5--5--5--5--5--5--5--|
[-5--5--5--5--5--5--5--5--5--5--5--5--5--5--5--5--5--5--5--5--5--5--5--5--5--5--5--5--5--5--5--5--|
[
[-------------------------------------------------------------------------------------------------|
[-------------------------------------------------------------------------------------------------|
[-------------------------------------------------------------------------------------------------|
[------------------------------------------------12-12-12-12-12-12-12-12-14-14-14-14-15-15-15-15--|
[-------------------------------------------------------------------------------------------------|
[------------------------------------------------10-10-10-10-10-10-10-10-12-12-12-12-13-13-13-13--|

  should             I                Could             I
[----0---0-0-0----------0--0-0-0----------0--0-0-0--------0--0-0-0-------|
[----0---0-0-0----------0--0-0-0----------0--0-0-0--------0--0-0-0-------|
[------------------------------------------------------------------------|
[-1----------------1-1----------------1/3--------------3-3---------------|
[-1----------------1-1----------------1/3--------------3-3---------------|
[-1----------------1-1----------------1/3--------------3-3---------------|



[-0--0--0--0--0--0--0--0--0--0--0--0--0--0--0--0--0--0--0--0--0--0--0--0--0--0--0--0--0--0--0--0--|
[-0--0--0--0--0--0--0--0--0--0--0--0--0--0--0--0--0--0--0--0--0--0--0--0--0--0--0--0--0--0--0--0--|
[-x--x--x--x--x--x--x--x--x--x--x--x--x--x--x--x--x--x--x--x--x--x--x--x--x--x--x--x--x--x--x--x--|
[-5--5--5--5--5--5--5--5--5--5--5--5--5--5--5--5--5--5--5--5--5--5--5--5--5--5--5--5--5--5--5--5\3|
[-5--5--5--5--5--5--5--5--5--5--5--5--5--5--5--5--5--5--5--5--5--5--5--5--5--5--5--5--5--5--5--5\3|
[-5--5--5--5--5--5--5--5--5--5--5--5--5--5--5--5--5--5--5--5--5--5--5--5--5--5--5--5--5--5--5--5\3|


  should             I                Could             I
[----0---0-0-0----------0--0-0-0----------0--0-0-0--------0--0-0-0---0----|
[----0---0-0-0----------0--0-0-0----------0--0-0-0--------0--0-0-0---0----|
[--------------------------------------------------------------------x----|
[-1----------------1-1----------------1/3--------------3-3-----------5----|
[-1----------------1-1----------------1/3--------------3-3-----------5----|
[-1----------------1-1----------------1/3--------------3-3-----------5----|

Hope ya liked it. Ratings are greatly appreciated and you all have a nice day.
Tap to rate this tab
 
# A B C D E F G H I J K L M N O P Q R S T U V W X Y Z