Song name
# A B C D E F G H I J K L M N O P Q R S T U V W X Y Z

10 Years - Silhouette Of A Life tab

Tabbed by: Ryan
Email: mounsr@gmail.com

10 Years
Silhouette Of A Life (Last solo)


Tuning: Drop C# (C# G# C# F# A# D#)


|-----0----0---------------------------------------------|
|---------------------------0---0----------3----3--1--0--|
|-------------3-----3-------5h7--------------5--5--3--0--|
|-5h7-----5---4---4-3h4-3--------------5h7------0--0--0--|
|-5-------------3------------------6p5----------5--3--0--|
|-------5---------------------------------------0--x--0--|


|--------------------0--|
|------------0-3--1--0--|
|----------7---5--3--0--|     (very last 3 chords)
|------5h7-----0--0--2--|
|--6p5---------5--3--3--|
|--------------0--x-----|
Tap to rate this tab
 
# A B C D E F G H I J K L M N O P Q R S T U V W X Y Z