Guitaretab - guitar tabs
Song name
# A B C D E F G H I J K L M N O P Q R S T U V W X Y Z

10 Years - Wasteland tab

10 Years-Wastland
Tune to Drop D Flat
Im a big 10 Years fan and it bothers me that all the tabs on here suck everyone should 
able to enjoy 10 Years. This is a great song by a great band please let me know what you 
and please rate this is my first tab.

Intro. gtr.1
[-----3-------3]
[--------------]
[--------------]
[--1-----1/3---]
[--1-----1/3---]
[--1-----1/3---]


Gtr. 1 and 2.
[--3---3---5555-]
[----------5555-]
[----------5555-]
[1---53----5555-]
[1---33----5555-]
[1---33----5555-]

Verse Gtr.2 Palm Muted
[--------------------------------------------------------------------]
[--------------------------------------------------------------------]
[---------------------------------------33332222----00005555---------]
[---555588887777555555558888777755551111111111113333000000003333-----]
[---555555555555777755555555555577771111111111113333--------3333-----]
[---555555555555555555555555555555551111111111113333--------3333030--]
                                                                Releas P.M

Verse Gtr.1.
[----------------------------------------------------------------------]
[----------16-15--------15-15-13----------16-15--------16-16-16-16-18--]
[--12-------------------------------12------------12-------------------]
[------------------13--------------------------------------------------]
[----------------------------------------------------------------------]
[----------------------------------------------------------------------]
   Die withdraw

Chorus Both Guitars
[--3---3----]
[-----------]
[-------5555]
[-1--53-5555]
[-1--33-5555]
[-1--33-5555]

Guitar 2.
[--------------------------------------]
[--------------------------------------]
[--------------------------------------]
[-55555555555555555555555555555555555--]
[-55555555555555555555555555555555555--]
[-55555555555555555555555555555555555--]
Gtr1.
[----------------------------------------------]
[----------------------------------------------]
[----------------------121212121414141415151515]
[----------------------x x x x x x x x x x x x ]
[----------------------101010101212121213131313]
[----------------------------------------------]
   You play this chorus two times.

Both Guitars
[--3---3----]
[-----------]
[-------5555]
[-1--53-5555]
[-1--33-5555]
[-1--33-5555]
[ Tab from: http://www.guitaretab.com/numeric/10-years/61892.html ]
Verse
Verse Gtr.2 Palm Muted
[--------------------------------------------------------------------]
[--------------------------------------------------------------------]
[---------------------------------------33332222----00005555---------]
[---555588887777555555558888777755551111111111113333000000003333-----]
[---555555555555777755555555555577771111111111113333--------3333-----]
[---555555555555555555555555555555551111111111113333--------3333030--]
                                                                Releas P.M

Verse Gtr.1.
[-------------------------------------]
[-----------15--------16-16-16-16-18--]
[-12-------------12-------------------]
[-------------------------------------]
[-------------------------------------]
[-------------------------------------]
This Time...

Chorus
[--3---3----]
[-----------]
[-------5555]
[-1--53-5555]
[-1--33-5555]
[-1--33-5555]

Guitar 2.
[--------------------------------------]
[--------------------------------------]
[--------------------------------------]
[-55555555555555555555555555555555555--]
[-55555555555555555555555555555555555--]
[-55555555555555555555555555555555555--]
Gtr1.
[--------------------------------------]
[--------------------------------------]
[--------------121212121414141415151515]
[--------------x x x x x x x x x x x x ]
[--------------101010101212121213131313]
[--------------------------------------]
   You play this chorus two times.

Bridge
Guitar 1.
[----------------------------]
[----------------------------]
[----------------------------]
[--55---55---1111111/3333333-]
[--55---55---1111111/3333333-]
[--55---55---1111111/3333333-]

Bridge
Guitar 2.
[-------------------------------------------------------]
[-------------------------------------------------------]
[-------------------------------------------------------]
[--55---55---12-12-12-12-12-12-12-10-10-10-10-10-10-10--]
[--55---55---x x x x x x x x x x x x x x x x x x x x x -]
[--55---55---10-10-10-10-10-10-10--8--8--8--8--8--8--8--]
Play the Bridge 4 times
Guitar 1.
[-----3-------3]
[--------------]
[--------------]
[--1-----1/3---]
[--1-----1/3---]
[--1-----1/3---]
Limbs tight

Chorus Both Guitars
[--3---3----]
[-----------]
[-------5555]
[-1--53-5555]
[-1--33-5555]
[-1--33-5555]

Guitar 2.
[--------------------------------------]
[--------------------------------------]
[--------------------------------------]
[-55555555555555555555555555555555555--]
[-55555555555555555555555555555555555--]
[-55555555555555555555555555555555555--]
Gtr1.
[--------------------------------------]
[--------------------------------------]
[--------------121212121414141415151515]
[--------------x x x x x x x x x x x x ]
[--------------101010101212121213131313]
[--------------------------------------]
  Only play this chorus once.

Break Down Both Guitars
Palm mute..........
[--
[--------------------------------------]
[--------------------------------------]
[--5555555555555555--5--5--5--5--5--5--]
[--5555555555555555--5--5--5--5--5--5--]
[--5555555555555555--5--5--5--5--5--5--]

Both Guitars ending
[--3---3---]
[----------]
[----------]
[-1--53--55]
[-1--33--55]
[-1--33--55]
Related for Wasteland tab
Advertisement will be closed in 10 seconds