Song name
# A B C D E F G H I J K L M N O P Q R S T U V W X Y Z

10 Years - Autumn Effect tab

10 Years
(The) Autumn Effect
Tabbed by U B the band
Tuning Db Ab Db Gb Bb Db

Legend
*-harmonic                     \-slide down                     /-slide up
pm-palm mute                   h-hammer on

Intro Guitar 1: (Matt)
Db|--------7--0---------8-----7----------------7--0---------8-----7---------|
Bb|------8-------8---8-----8-----8---8-------8-------8---8-----8-----8---8--|
Gb|----7-----------7---------------7-------7-----------7---------------7----|
Db|--0-----------------------------------0----------------------------------|
Ab|-------------------------------------------------------------------------|
Db|-------------------------------------------------------------------------|

Db|--------7--0---------8-----7----------------7--0---------8-----7---------|
Bb|------8-------8---8-----8-----8---8-------8-------8---8-----8-----8---8--|
Gb|----7-----------7---------------7-------7-----------7---------------7----|
Db|--0-----------------------------------0----------------------------------|
Ab|-------------------------------------------------------------------------|
Db|-------------------------------------------------------------------------|

Db|--------7--0---------8-----7----------------7--0---------8-----7---------|
Bb|------8-------8---8-----8-----8---8-------8-------8---8-----8-----8------|
Gb|----7-----------7---------------7-------7-----------7---------------7----|
Db|--0-----------------------------------0----------------------------------|
Ab|-------------------------------------------------------------------------|
Db|-------------------------------------------------------------------------|
                                                                            |
Intro Guitar 2: (Ryan)                                                      |
Db|-------------------------------------------------------------------------|
Bb|--------------------------------------18----15-----15-----16----15-------|
Gb|-------------------------------------------------------------------------|
Db|-------------------------------------------------------------------------|
Ab|-------------------------------------------------------------------------|
Db|-------------------------------------------------------------------------|

Verse 1 Guitar 1: Casting a cool breeze
Db|--------------------------------------------7--0---------8-----7---------|
Bb|------------------------------------------8-------8---8-----8-----8------|
Gb|----------------------------------------7-----------7---------------7----|
Db|--------------------------------------0----------------------------------|
Ab|-------------------------------------------------------------------------|
Db|-------------------------------------------------------------------------|
                                                                            |
Verse 1 Guitar 2:                                                           |
Db|-------------------------------12*---------------------------------------|
Bb|--------------------------------------18----15-----15-----16----15-------|
Gb|-------------------------------------------------------------------------|
Db|-------------------------------------------------------------------------|
Ab|-------------------------------------------------------------------------|
Db|-------------------------------------------------------------------------|

Verse 1 Guitar 1: Supplied by the Autumn
Db|--------------------------------------------7--0---------8-----7---------|
Bb|------------------------------------------8-------8---8-----8-----8------|
Gb|----------------------------------------7-----------7---------------7----|
Db|--------------------------------------0----------------------------------|
Ab|-------------------------------------------------------------------------|
Db|-------------------------------------------------------------------------|
                                                                            |
Verse 1 Guitar 2:                                                           |
Db|-------------------------------12*---------------------------------------|
Bb|--------------------------------------18----15-----15-----16----15-------|
Gb|-------------------------------------------------------------------------|
Db|-------------------------------------------------------------------------|
Ab|-------------------------------------------------------------------------|
Db|-------------------------------------------------------------------------|

Verse 1 guitar 1: question where it went wrong
Db|--------7--0---------8-----7----------------7--0---------8-----7---------|
Bb|------8-------8---8-----8-----8---8-------8-------8---8-----8-----8---8--|
Gb|----7-----------7---------------7-------7-----------7---------------7----|
Db|--0-----------------------------------0----------------------------------|
Ab|-------------------------------------------------------------------------|
Db|-------------------------------------------------------------------------|
                                                                            |
Verse 1 Guitar 2:                                                           |
Db|-------------------------------------------------------------------------|
Bb|--18----15-----15-----16----15--------18----15-----15-----16----15-------|
Gb|-------------------------------------------------------------------------|
Db|-------------------------------------------------------------------------|
Ab|-------------------------------------------------------------------------|
Db|-------------------------------------------------------------------------|

Verse 1 Guitar 1: Climbing Jacobs ladder
Db|--------------------------------------------7--0---------8-----7---------|
Bb|------------------------------------------8-------8---8-----8-----8---8--|
Gb|----------------------------------------7-----------7---------------7----|
Db|--------------------------------------0----------------------------------|
Ab|-------------------------------------------------------------------------|
Db|-------------------------------------------------------------------------|
                                                                            |
Verse 1 Guitar 2:                                                           |
Db|-------------------------------------------------------------------------|
Bb|--------------------------------------18----15-----15-----16----15-------|
Gb|-------------------------------------------------------------------------|
Db|-------------------------------------------------------------------------|
Ab|-------------------------------------------------------------------------|
Db|-------------------------------------------------------------------------|

Verse 1 Guitar 1: Climbing Jacobs ladder
Db|--------------------------------------------7--0---------8-----7---------|
Bb|------------------------------------------8-------8---8-----8-----8---8--|
Gb|----------------------------------------7-----------7---------------7----|
Db|--------------------------------------0----------------------------------|
Ab|-------------------------------------------------------------------------|
Db|-------------------------------------------------------------------------|
                                                                            |
Verse 1 Guitar 2:                                                           |
Db|-------------------------------------------------------------------------|
Bb|--------------------------------------18----15-----15-----16----15-------|
Gb|-------------------------------------------------------------------------|
Db|-------------------------------------------------------------------------|
Ab|-------------------------------------------------------------------------|
Db|-------------------------------------------------------------------------|

Verse 1 guitar 1: Kindly could you reevaluate
Db|--------7--0---------8-----7----------------7--0---------8-----7---------|
Bb|------8-------8---8-----8-----8---8-------8-------8---8-----8-----8------|
Gb|----7-----------7---------------7-------7-----------7---------------7----|
Db|--0-----------------------------------0----------------------------------|
Ab|-------------------------------------------------------------------------|
Db|-------------------------------------------------------------------------|
                                                                            |
Verse 1 Guitar 2:                                                           |
Db|-------------------------------------------------------------------------|
Bb|--18----15-----15-----16----15--------18----15-----15-----16----15-------|
Gb|-------------------------------------------------------------------------|
Db|-------------------------------------------------------------------------|
Ab|-------------------------------------------------------------------------|
Db|-------------------------------------------------------------------------|

Pre Chorus Guitar 1: Automated growth
Db|-------------------------------------------------------------------------|
Bb|-------------------------------------------------------------------------|
Gb|--7----------------------------------------------------------------------|
Db|--8----------------7-----------------------------------------------------|
Ab|-------------------------------------------------------------------------|
Db|-------------------------------------------------------------------------|

Chorus Guitar 1: (Matt)
Db|--------------------------------------------------------------------0----|
Bb|------------3-----------------3-----------------------3--------1---------|
Gb|--------2-----------------2----------------------0-h2---2---2-----2------|
Db|-----------------------------------------------3-------------------------|
Ab|-------------------------------------------------------------------------|
Db|-------------------------------------------------------------------------|
                                                                            |
Chorus Guitar 2: (Ryan)                                                     |
Db|-------------------------------------------------------------------------|
Bb|-------------------------------------------------------------------------|
Gb|-----------------------------------------------10-10-------12--12--------|
Db|--12\---0-0--0-0-0---0-0--0-0-0---0-0--0-0-0---8--8-1212---10--10-14-14--|
Ab|--12\---0-0--0-0-0---0-0--0-0-0---0-0--0-0-0---8--8-8-8----10--10-10-10--|
Db|--12\---0-0--0-0-0---0-0--0-0-0---0-0--0-0-0---8--8-8-8----10--10-10-10--|
           pmpm pmpmpm  pmpm pmpmpm  pmpm pmpmpm

Chorus Guitar 1: (Matt)
Db|--------------------------------------------------------------0----------|
Bb|------3-----------------3-----------------------3--------1---------------|
Gb|--2-----------------2----------------------0-h2---2---2-----2------------|
Db|-----------------------------------------3-------------------------------|
Ab|-------------------------------------------------------------------------|
Db|-------------------------------------------------------------------------|
                                                                            |
Chorus Guitar 2: (Ryan)                                                     |
Db|-------------------------------------------------------------------------|
Bb|-------------------------------------------------------------------------|
Gb|-----------------------------------------10-10-------12--12--------------|
Db|--0-0--0-0-0---0-0--0-0-0---0-0--0-0-0---8--8-1212---10--10-14-14--------|
Ab|--0-0--0-0-0---0-0--0-0-0---0-0--0-0-0---8--8-8-8----10--10-10-10--------|
Db|--0-0--0-0-0---0-0--0-0-0---0-0--0-0-0---8--8-8-8----10--10-10-10--------|
     pmpm pmpmpm  pmpm pmpmpm  pmpm pmpmpm

Chorus Guitar 1: (Matt)
Db|--------------------------------------------------------------0----------|
Bb|------3-----------------3-----------------------3--------1---------------|
Gb|--2-----------------2----------------------0-h2---2---2-----2------------|
Db|-----------------------------------------3-------------------------------|
Ab|-------------------------------------------------------------------------|
Db|-------------------------------------------------------------------------|
                                                                            |
Chorus Guitar 2: (Ryan)                                                     |
Db|-------------------------------------------------------------------------|
Bb|-------------------------------------------------------------------------|
Gb|-----------------------------------------10-10-------12--12--------------|
Db|--0-0--0-0-0---0-0--0-0-0---0-0--0-0-0---8--8-1212---10--10-14-14--------|
Ab|--0-0--0-0-0---0-0--0-0-0---0-0--0-0-0---8--8-8-8----10--10-10-10--------|
Db|--0-0--0-0-0---0-0--0-0-0---0-0--0-0-0---8--8-8-8----10--10-10-10--------|
     pmpm pmpmpm  pmpm pmpmpm  pmpm pmpmpm

Chorus Guitar 1: (Matt)
Db|--------------------------------------------------------------0----------|
Bb|------3-----------------3-----------------------3--------1---------------|
Gb|--2-----------------2----------------------0-h2---2---2-----2------------|
Db|-----------------------------------------3-------------------------------|
Ab|-------------------------------------------------------------------------|
Db|-------------------------------------------------------------------------|
                                                                            |
Chorus Guitar 2: (Ryan)                                                     |
Db|-------------------------------------------------------------------------|
Bb|-------------------------------------------------------------------------|
Gb|-----------------------------------------10-10-------12--12--------------|
Db|--0-0--0-0-0---0-0--0-0-0---0-0--0-0-0---8--8-1212---10--10-14-14--------|
Ab|--0-0--0-0-0---0-0--0-0-0---0-0--0-0-0---8--8-8-8----10--10-10-10--------|
Db|--0-0--0-0-0---0-0--0-0-0---0-0--0-0-0---8--8-8-8----10--10-10-10--------|
     pmpm pmpmpm  pmpm pmpmpm  pmpm pmpmpm

Post Chorus Guitar 1: (Matt)
Db|--------7--0---------8-----7----------------7--0---------8-----7---------|
Bb|------8-------8---8-----8-----8---8-------8-------8---8-----8-----8------|
Gb|----7-----------7---------------7-------7-----------7---------------7----|
Db|--0-----------------------------------0----------------------------------|
Ab|-------------------------------------------------------------------------|
Db|-------------------------------------------------------------------------|

Verse 2 Guitar 1: Try and come to willingly embrace
Db|--------------------------------------------7--0---------8-----7---------|
Bb|------------------------------------------8-------8---8-----8-----8------|
Gb|----------------------------------------7-----------7---------------7----|
Db|--------------------------------------0----------------------------------|
Ab|-------------------------------------------------------------------------|
Db|-------------------------------------------------------------------------|
                                                                            |
Verse 2 Guitar 2:                                                           |
Db|-------------------------------------------------------------------------|
Bb|--------------------------------------18----15-----15-----16----15-------|
Gb|-------------------------------------------------------------------------|
Db|-------------------------------------------------------------------------|
Ab|-------------------------------------------------------------------------|
Db|-------------------------------------------------------------------------|

Verse 2 Guitar 1: Karmas kiss of withering decay
Db|--------------------------------------------7--0---------8-----7---------|
Bb|------------------------------------------8-------8---8-----8-----8---8--|
Gb|----------------------------------------7-----------7---------------7----|
Db|--------------------------------------0----------------------------------|
Ab|-------------------------------------------------------------------------|
Db|-------------------------------------------------------------------------|
                                                                            |
Verse 2 Guitar 2:                                                           |
Db|-------------------------------------------------------------------------|
Bb|--------------------------------------18----15-----15-----16----15-------|
Gb|-------------------------------------------------------------------------|
Db|-------------------------------------------------------------------------|
Ab|-------------------------------------------------------------------------|
Db|-------------------------------------------------------------------------|

Verse 2 guitar 1: Death feeds, Hell breeds
Db|--------7--0---------8-----7----------------7--0---------8-----7---------|
Bb|------8-------8---8-----8-----8---8-------8-------8---8-----8-----8---8--|
Gb|----7-----------7---------------7-------7-----------7---------------7----|
Db|--0-----------------------------------0----------------------------------|
Ab|-------------------------------------------------------------------------|
Db|-------------------------------------------------------------------------|
                                                                            |
Verse 2 Guitar 2:                                                           |
Db|-------------------------------------------------------------------------|
Bb|--18----15-----15-----16----15--------18----15-----15-----16----15-------|
Gb|-------------------------------------------------------------------------|
Db|-------------------------------------------------------------------------|
Ab|-------------------------------------------------------------------------|
Db|-------------------------------------------------------------------------|

Pre Chorus Guitar 1: the Autumn
Db|-------------------------------------------------------------------------|
Bb|-------------------------------------------------------------------------|
Gb|--7----------------------------------------------------------------------|
Db|--8----------------7b(8)-------------------------------------------------|
Ab|-------------------------------------------------------------------------|
Db|-------------------------------------------------------------------------|

Chorus Guitar 1: (Matt)
Db|--------------------------------------------------------------------0----|
Bb|------------3-----------------3-----------------------3--------1---------|
Gb|--------2-----------------2----------------------0-h2---2---2-----2------|
Db|-----------------------------------------------3-------------------------|
Ab|-------------------------------------------------------------------------|
Db|-------------------------------------------------------------------------|
                                                                            |
Chorus Guitar 2: (Ryan)                                                     |
Db|-------------------------------------------------------------------------|
Bb|-------------------------------------------------------------------------|
Gb|-----------------------------------------------10-10-------12--12--------|
Db|--12\---0-0--0-0-0---0-0--0-0-0---0-0--0-0-0---8--8-1212---10--10-14-14--|
Ab|--12\---0-0--0-0-0---0-0--0-0-0---0-0--0-0-0---8--8-8-8----10--10-10-10--|
Db|--12\---0-0--0-0-0---0-0--0-0-0---0-0--0-0-0---8--8-8-8----10--10-10-10--|
           pmpm pmpmpm  pmpm pmpmpm  pmpm pmpmpm

Chorus Guitar 1: (Matt)
Db|--------------------------------------------------------------0----------|
Bb|------3-----------------3-----------------------3--------1---------------|
Gb|--2-----------------2----------------------0-h2---2---2-----2------------|
Db|-----------------------------------------3-------------------------------|
Ab|-------------------------------------------------------------------------|
Db|-------------------------------------------------------------------------|
                                                                            |
Chorus Guitar 2: (Ryan)                                                     |
Db|-------------------------------------------------------------------------|
Bb|-------------------------------------------------------------------------|
Gb|-----------------------------------------10-10-------12--12--------------|
Db|--0-0--0-0-0---0-0--0-0-0---0-0--0-0-0---8--8-1212---10--10-14-14--------|
Ab|--0-0--0-0-0---0-0--0-0-0---0-0--0-0-0---8--8-8-8----10--10-10-10--------|
Db|--0-0--0-0-0---0-0--0-0-0---0-0--0-0-0---8--8-8-8----10--10-10-10--------|
     pmpm pmpmpm  pmpm pmpmpm  pmpm pmpmpm

Chorus Guitar 1: (Matt)
Db|--------------------------------------------------------------0----------|
Bb|------3-----------------3-----------------------3--------1---------------|
Gb|--2-----------------2----------------------0-h2---2---2-----2------------|
Db|-----------------------------------------3-------------------------------|
Ab|-------------------------------------------------------------------------|
Db|-------------------------------------------------------------------------|
                                                                            |
Chorus Guitar 2: (Ryan)                                                     |
Db|-------------------------------------------------------------------------|
Bb|-------------------------------------------------------------------------|
Gb|-----------------------------------------10-10-------12--12--------------|
Db|--0-0--0-0-0---0-0--0-0-0---0-0--0-0-0---8--8-1212---10--10-14-14--------|
Ab|--0-0--0-0-0---0-0--0-0-0---0-0--0-0-0---8--8-8-8----10--10-10-10--------|
Db|--0-0--0-0-0---0-0--0-0-0---0-0--0-0-0---8--8-8-8----10--10-10-10--------|
     pmpm pmpmpm  pmpm pmpmpm  pmpm pmpmpm

Chorus Guitar 1: (Matt)
Db|--------------------------------------------------------------0----------|
Bb|------3-----------------3-----------------------3--------1---------------|
Gb|--2-----------------2----------------------0-h2---2---2-----2------------|
Db|-----------------------------------------3-------------------------------|
Ab|-------------------------------------------------------------------------|
Db|-------------------------------------------------------------------------|
                                                                            |
Chorus Guitar 2: (Ryan)                                                     |
Db|-------------------------------------------------------------------------|
Bb|-------------------------------------------------------------------------|
Gb|-----------------------------------------10-10-------12--12--------------|
Db|--0-0--0-0-0---0-0--0-0-0---0-0--0-0-0---8--8-1212---10--10-14-14--------|
Ab|--0-0--0-0-0---0-0--0-0-0---0-0--0-0-0---8--8-8-8----10--10-10-10--------|
Db|--0-0--0-0-0---0-0--0-0-0---0-0--0-0-0---8--8-8-8----10--10-10-10--------|
     pmpm pmpmpm  pmpm pmpmpm  pmpm pmpmpm

Outro Guitar 1:
Db|-----------0---------3---2--2----------------------0---------3---2-2-----|
Bb|-------1-1---------------------1---------------1-1-------------------1---|
Gb|---2---------------------------------------2-----------------------------|
Db|-------------------------------------------------------------------------|
Ab|-------------------------------------------------------------------------|
Db|-------------------------------------------------------------------------|
                                                                            |
Outro Guitar 2:                                                             |
Db|-------------------------------------------------------------------------|
Bb|-------------------------------------------------------------------------|
Gb|-------------------------------------------------------------------------|
Db|--8---8---8--8------10---10---10--10------0---0---0--0------0---0---0--0-|
Ab|--8---8---8--8------10---10---10--10------0---0---0--0------0---0---0--0-|
Db|--8---8---8--8------10---10---10--10------0---0---0--0------0---0---0--0-|

Outro Guitar 1:
Db|-----------0---------3---2--2----------------------0---------3---2-2-----|
Bb|-------1-1---------------------1---------------1-1-------------------1---|
Gb|---2---------------------------------------2-----------------------------|
Db|-------------------------------------------------------------------------|
Ab|-------------------------------------------------------------------------|
Db|-------------------------------------------------------------------------|
                                                                            |
Outro Guitar 2:                                                             |
Db|-------------------------------------------------------------------------|
Bb|-------------------------------------------------------------------------|
Gb|-------------------------------------------------------------------------|
Db|--8---8---8--8------10---10---10--10------0---0---0--0------0---0---0--0-|
Ab|--8---8---8--8------10---10---10--10------0---0---0--0------0---0---0--0-|
Db|--8---8---8--8------10---10---10--10------0---0---0--0------0---0---0--0-|

Outro Guitar 1:
Db|-----------0---------3---2--2----------------------0---------3-----------|
Bb|-------1-1---------------------1---------------1-1-----------------------|
Gb|---2---------------------------------------2-----------------------------|
Db|-------------------------------------------------------------------------|
Ab|-------------------------------------------------------------------------|
Db|-------------------------------------------------------------------------|
                                                                            |
Outro Guitar 2:                                                             |
Db|-------------------------------------------------------------------------|
Bb|-------------------------------------------------------------------------|
Gb|-------------------------------------------------------------------------|
Db|--8---8---8--8------10---10---10--10------8---8---8--8------10----10-----|
Ab|--8---8---8--8------10---10---10--10------8---8---8--8------10----10-----|
Db|--8---8---8--8------10---10---10--10------8---8---8--8------10----10-----|

Outro Guitar 1:
Db|---2--------2------------------------------------------------------------|
Bb|---------------------1---------------------------------------------------|
Gb|------------------------------------------2------------------------------|
Db|-------------------------------------------------------------------------|
Ab|-------------------------------------------------------------------------|
Db|-------------------------------------------------------------------------|
                                                                            |
Outro Guitar 2:                                                             |
Db|-------------------------------------------------------------------------|
Bb|-------------------------------------------------------------------------|
Gb|-------------------------------------------------------------------------|
Db|--10----10----10----10----10----10--------0------------------------------|
Ab|--10----10----10----10----10----10--------0------------------------------|
Db|--10----10----10----10----10----10--------0------------------------------|

Finished!
Tap to rate this tab
# A B C D E F G H I J K L M N O P Q R S T U V W X Y Z