Song name
# A B C D E F G H I J K L M N O P Q R S T U V W X Y Z

10 Years - Insects Acoustic tab

Insects (Acoustic Version)
by 10 Years
from "Killing All That Holds You"

==============================================================================
Tuning:
Db Ab Db Gb Bb Eb

This acoustic version is very different from the one found on "The Autumn Effect,"
though the verses pretty much laid out the same, and are clearer so they may be
tabbed more accurately than the ones I did for the TAE version.

==============================================================================
Intro:

Eb ------------------------------------------------------------13-----|
Bb -------------------------------------------------------------------|
Gb ---10-10-10-9---10-10-10-7---10-10-12-12-14-14-14-14-----15----14--|
Db -------------------------------------------------------------------|
Ab ---8--8--8--7---8--8--8--5---8--8--10-10-12-12-12-12---------------|
Db ---0--0--0--0---0--0--0--0---0--0--0--0--0--0--0--0----------------|

Play 2x

==============================================================================
Verses:

Bass line (tabbed for guitar) - play 4x
Eb ----------------------------------------------------|
Bb ----------------------------------------------------|
Gb ----------------------------------------------------|
Db -------3---3------2---2---------3---3------2---2----|
Ab -----0---X------3---3---3-----0---X------3---3---3--|
Db ---0----------0-------------0----------0------------|

Eb ----------------------------------------------------|
Bb ----------------------------------------------------|
Gb -----------------------------------------------0-2--|
Db -------3---3------2---2---------3---3------2-3------|
Ab -----0---X------3---3---3-----0---X------3----------|
Db ---0----------0-------------0----------0------------|

Guitar 1 -
Eb ---13------15------8-----10--|
Bb ---13------12------8-----10--|
Gb -----------------------------| play 2x
Db -----------------------------|
Ab -----------------------------|
Db -----------------------------|

Eb ---13------15------8-----10---10-12-13-12-10-----|
Bb ---13------12------8-----10------------------13--|
Gb -------------------------------------------------| play 2x
Db -------------------------------------------------|
Ab -------------------------------------------------|
Db -------------------------------------------------|

Guitar 2 - come in 2nd half of each verse, play 2x
Eb ----------------------------------------------------------------------|
Bb ----------------------------------------------------------------------|
Gb ----------------------------------------------------------------------|
Db ---------15---15--------14----14-----------15---15--------14----14----|
Ab ------12----X--------15----15----15-----12----X--------15----15----15-|
Db ---12-------------12-----------------12-------------12----------------|

Eb -----------------------------------------------------------------------|
Bb -----------------------------------------------------------------------|
Gb ----------------------------------------------------------------12-14--|
Db ---------15---15--------14----14-----------15---15--------14-15--------|
Ab ------12----X--------15----15----15-----12----X--------15--------------|
Db ---12-------------12-----------------12-------------12-----------------|


==============================================================================
Chorus:

Eb -------------------------------------------------|
Bb -------------------------------------------------|
Gb -------------------------------------------------| play 4x
Db --3-3-3-2--3-3-3-0--3-5-7-7-7-7-7-7-7--10-10--5--|
Ab --3-3-3-2--3-3-3-0--3-5-7-7-7-7-7-7-7--10-10--5--|
Db --3-3-3-2--3-3-3-0--3-5-7-7-7-7-7-7-7--10-10--5--|

==============================================================================
Ending:

Eb ---------------------------------------------------------------|
Bb ---------------------------------------------------------------|
Gb -------------------10-10-9--------------------10-10-9-9-12-12--| play 4x
Db ---------------0--------------------------0--------------------|
Ab -----5-4-----3-0---8--8--7------5-4-----3-0---8--8--7-7-10-10--|
Db --/7-----5-3---0-------------/7-----5-3---0--------------------|

Eb ----------------------------------------------------|
Bb ----------------------------------------------------|
Gb ----------------------------------------------------|
Db -------3---3------2---2---------3---3------2---2----|
Ab -----0---X------3---3---3-----0---X------3---3---3--|
Db ---0----------0-------------0----------0------------|

Eb ----------------------------------------------|
Bb ----------------------------------------------|
Gb ----------------------------------------------|
Db -------3---3------2---2---------3---3------2--|
Ab -----0---X------3---3---3-----0---X------3-3--|
Db ---0----------0-------------0----------0------|

=============================================================================

Visit band at: http://www.10yearsmusic.com
E-Mail corrections/adulation/flames to: jnorfleet@bellsouth.net
Tap to rate this tab
# A B C D E F G H I J K L M N O P Q R S T U V W X Y Z