Song name
# A B C D E F G H I J K L M N O P Q R S T U V W X Y Z

10 Years - Cast It Out tab

Band:10 Years
Song:Cast It Out
Album:Autumm Effect
Tuning:Drop-D
Tabber:Christian Mican

Intro2X
-|-----------------------------------|-
-|-----------------------------------|-
-|-----------------------------------|-
-|-----------------------------------|-
-|-----------------------------------|-
-|-000000000555555555333333333333333-|-
   .................................
x2
-|------------------------------------|-
-|-33333333-88888888-6666666666666666-|-
-|-22222222-77777777-5555555555555555-|-
-|-00000000-55555555-3333333333333333-|-
-|-00000000-55555555-3333333333333333-|-
-|-00000000-55555555-3333333333333333-|-
Verse 1
-|---------------------|-
-|---------------------|-
-|----7----7----7----7-|-
-|----X----X----X----X-|-
-|----5----5----5----5-|-
-|-00---00---00---00---|-
   ..   ..   ..   ..
Chorusx2
-|------------------------------------|-
-|------------------------------------|-
-|------------------------------------|-
-|-00000000-55555555-3333333333333333-|-
-|-00000000-55555555-3333333333333333-|-
-|-00000000-55555555-3333333333333333-|-

x2
-|------------------------------------|-
-|-33333333-88888888-6666666666666666-|-
-|-22222222-77777777-5555555555555555-|-
-|-00000000-55555555-3333333333333333-|-
-|-00000000-55555555-3333333333333333-|-
-|-00000000-55555555-3333333333333333-|-

Verse 2
-|---------------------|-
-|---------------------|-
-|----7----7----7----7-|-
-|----X----X----X----X-|-
-|----5----5----5----5-|-
-|-00---00---00---00---|-
   ..   ..   ..   ..

(im so sorry i dont have the rest but i will get it to you shortly)

                                -Chirstian J. Mican
Tap to rate this tab
 
# A B C D E F G H I J K L M N O P Q R S T U V W X Y Z