Song name
# A B C D E F G H I J K L M N O P Q R S T U V W X Y Z

10 Years - Through The Iris Acoustic tab

10 Years - Through The Iris Acoustic
------------------------------------

Performed in Knoxville, TN

Tabbed by: pikey_no1 (Will Homer)

Intro:

Eb|-------------------|-------------------|
Bb|-------------------|-------------------|
Gb|-6--6-6-6-6--6-6-6-|----------9--9-9-9-|
Db|-6--6-6-6-6--6-6-6-|-0--0-0-0-9--9-9-9-|
Ab|-4--4-4-4-4--4-4-4-|-0--0-0-0-7--7-7-7-|
Db|-4--4-4-4-4--4-4-4-|-0--0-0-0-7--7-7-7-|

|-------------------|----------x-x--x-x-|
|-------------------|----------x-x--x-x-|
|-6--6-6-6-6--6-6-6-|----------x-x--x-x-|
|-6--6-6-6-6--6-6-6-|-0--0-0-0-x-x--x-x-|
|-4--4-4-4-4--4-4-4-|-0--0-0-0-x-x--x-x-|
|-4--4-4-4-4--4-4-4-|-0--0-0-0-x-x--x-x-|  

[Repeat first 2 bars twice]

Verse:

|-------------------|-------------------|
|-------------------|-------------------|
|-6--6-6-6-6--6-6-6-|----------9--9-9-9-|
|-6--6-6-6-6--6-6-6-|-0--0-0-0-9--9-9-9-|
|-4--4-4-4-4--4-4-4-|-0--0-0-0-7--7-7-7-|
|-4--4-4-4-4--4-4-4-|-0--0-0-0-7--7-7-7-|  x3

|-------------------|----------x-x--x-x-|
|-------------------|----------x-x--x-x-|
|-6--6-6-6-6--6-6-6-|----------x-x--x-x-|
|-6--6-6-6-6--6-6-6-|-0--0-0-0-x-x--x-x-|
|-4--4-4-4-4--4-4-4-|-0--0-0-0-x-x--x-x-|
|-4--4-4-4-4--4-4-4-|-0--0-0-0-x-x--x-x-|

Repeat first 2 bars 4 times, then play

|-------------------------|-------------x--x-x-|
|-------------------------|-------------x--x-x-|
|-4-4-4-4-4-4-4-4-4-4-4-4-|-4-4-4-4-4-4-x--x-x-|
|-4-4-4-4-4-4-4-4-4-4-4-4-|-4-4-4-4-4-4-x--x-x-|
|-2-2-2-2-2-2-2-2-2-2-2-2-|-2-2-2-2-2-2-x--x-x-|
|-2-2-2-2-2-2-2-2-2-2-2-2-|-2-2-2-2-2-2-x--x-x-|

Chorus:

|-----------------------|-----------------------|
|-----------------------|-----------------------|
|-----------------------|-2--2-2-2-2-4--4-4-4-4-|
|-4--4-4-4-4-7--7-7-7-7-|-0--0-0-0-0-2--2-2-2-2-|
|-4--4-4-4-4-7--7-7-7-7-|-0--0-0-0-0-2--2-2-2-2-|
|-4--4-4-4-4-7--7-7-7-7-|-0--0-0-0-0-2--2-2-2-2-|

|-----------------------|---------------------------------|
|-----------------------|---------------------------------|
|-6--6-6-6-6-9--9-9-9-9-|-11--11-11-11-11-11--11-11-11-11-|
|-4--4-4-4-4-7--7-7-7-7-|--9---9--9--9--9--9---9--9--9--9-|
|-4--4-4-4-4-7--7-7-7-7-|--9---9--9--9--9--9---9--9--9--9-|
|-4--4-4-4-4-7--7-7-7-7-|--9---9--9--9--9--9---9--9--9--9-|

|-----------------------|-----------------------|
|-----------------------|-----------------------|
|-----------------------|-2--2-2-2-2-4--4-4-4-4-|
|-4--4-4-4-4-7--7-7-7-7-|-0--0-0-0-0-2--2-2-2-2-|
|-4--4-4-4-4-7--7-7-7-7-|-0--0-0-0-0-2--2-2-2-2-|
|-4--4-4-4-4-7--7-7-7-7-|-0--0-0-0-0-2--2-2-2-2-|

|-----------------------|---------------------------------|
|-----------------------|---------------------------------|
|-6--6-6-6-6-9--9-9-9-9-|-11--11-11-11-11-11--11-11-11-11-|
|-4--4-4-4-4-7--7-7-7-7-|--9---9--9--9--9--9---9--9--9--9-|
|-4--4-4-4-4-7--7-7-7-7-|--9---9--9--9--9--9---9--9--9--9-|
|-4--4-4-4-4-7--7-7-7-7-|--9---9--9--9--9--9---9--9--9--9-|

|----------------------|
|----------------------|
|-11-11-11-11--9-9-9-9-|
|--9--9--9--9--7-7-7-7-|
|--9--9--9--9--7-7-7-7-|
|--9--9--9--9--7-7-7-7-|

Verse

Chorus

Bridge [just play the verse, and every 4 bars change the strumming a bit]

Chorus x2

Outro:

|-------------------|-------------------|
|-------------------|-------------------|
|-6--6-6-6-6--6-6-6-|----------9--9-9-9-|
|-6--6-6-6-6--6-6-6-|-0--0-0-0-9--9-9-9-|
|-4--4-4-4-4--4-4-4-|-0--0-0-0-7--7-7-7-|
|-4--4-4-4-4--4-4-4-|-0--0-0-0-7--7-7-7-|

|---------|
|---------|
|-6--6--6-|
|-6--6--6-|
|-4--4--4-|
|-4--4--4-|

I'm not too sure on the bridge, but it sounds pretty damn close, so you may as well
play it like I said. Other than that one problem, I thnk its the same, seeing as I
did watch the video for it a load of times at:

http://www.10yearsmusic.com/mediaplayer/10years_player_v11.html

Have fun playing!
Tap to rate this tab
 
# A B C D E F G H I J K L M N O P Q R S T U V W X Y Z