Song name
# A B C D E F G H I J K L M N O P Q R S T U V W X Y Z

10 Years - Paralyzing Kings tab

verse                      second guitar is palm-muting with the first guitar
eb(-----------------------)(-----------------------)
bb(-----------------------)(-----------------------)
gb(--------------555------)(-----------------------)
db(--777-555-777-----7755-)(-----------------------)
ab(-----------------------)(-----------------------)
Db(-----------------------)(--000-000-000-000-0000-)

chorus
eb(---------------)(-----------)(-----------)
bb(---------------)(--88887777-)(--77777777-)
gb(---------------)(--77776666-)(--66666666-)
db(--000-0-0000-0-)(-----------)(-----------)
ab(--000-0-0000-0-)(-----------)(-----------)
Db(--000-0-0000-0-)(-----------)(-----------)

bridge                            bridge(lead)
eb(-----------------------------)(-------------)
bb(-----------------------------)(-------------)
gb(----------7-7---------7-10-9-)(--7-8-7-8-10-)
db(-----3----7-7----3----7-10-9-)(--7-8-7-8-10-)
ab(--555-555-5-5-555-555-5--8-7-)(--5-6-5-6--8-)
Db(-----------------------------)(-------------)

solo
eb(--17-17-17-17-17-17-17-17-15-13-12----------------------15-13-12-)
bb(-----------------------------------13-13-13-13-13-13-13----------)
gb(-----------------------------------------------------------------)
db(-----------------------------------------------------------------)
ab(-----------------------------------------------------------------)
Db(-----------------------------------------------------------------)
Tap to rate this tab
# A B C D E F G H I J K L M N O P Q R S T U V W X Y Z