Song name
# A B C D E F G H I J K L M N O P Q R S T U V W X Y Z

10 Years - Seasons To Cycle tab

intro/verse
e(---------------------)
b(---------------------)
g(---------------------)
d(------4-----6------3-)
e(--1-2---3-4---0-1----)
E(---------------------)

chorus
e(-----------------------------------)
b(-----------------------------------)
g(-----------------------------------)
d(--88888-888888888-66666-6666666666-)
a(--88888-888888888-66666-6666666666-)
E(--66666-666666666-44444-4444444444-)

lead
e(--22222-22222242-11111-1110421-)
b(-------------------------------)
g(-------------------------------)
d(-------------------------------)
a(-------------------------------)
E(-------------------------------)

outro
e(-------------------------------------------------)
b(-------------------------------------------------)
g(-------------------------------------------------)
d(------4-----6-----3----2---3---2-0-----4-----6-3-)
a(--1-2---3-4---0-1----1---1---1-----1-2---3-4---1-)
E(-------------------------------------------------)
Tap to rate this tab
# A B C D E F G H I J K L M N O P Q R S T U V W X Y Z