Song name
# A B C D E F G H I J K L M N O P Q R S T U V W X Y Z

10 Years - The Recipe tab

Song - The Recipe
band - 10 years
Tabbed By Angel_Fires

Tuning: Drop Db (Db Ab Db Gb Bb eb)

Intro, With Delay/Echo Pedal.

eb--------------------------------------------|
Bb----15---15---15---15---15---15---15---15---|
Gb-14---14---14---14---14---14---14---14------|
Db--------------------------------------------|
Ab--------------------------------------------|
Db--------------------------------------------|

eb--------------------------------------------|
Bb----18---18---18---18---18---18---18---18---|
Gb-14---14---14---14---14---14---14---14------|
Db--------------------------------------------|
Ab--------------------------------------------|
Db--------------------------------------------|


Chorus:
eb--------------------------------|
Bb-3-3-3-3-3-3-3-3/7-----7-7-7-7--|
Gb-2-2-2-3-2-2-2-3-6-6-6-6-6-6-6--|
Db-2-2-2-2-2-2-2-2-6-6-6-6-6-6-6--|
Ab-0-0-0-0-0-0-0-0-4-4-4-4-4-4-4--|
Db--------------------------------|

Mid-Chorus:
eb--------------------------------------------|
Bb----15---15---15---15---15---15---15---15---|
Gb-14---14---14---14---14---14---14---14------|
Db--------------------------------------------|
Ab--------------------------------------------|
Db--------------------------------------------|


Verse:

eb---------------------------------|
Bb------------18b19r18b19r18b19r18-|
Gb---------------------------------|
Db-0-0-0-0-0-----------------------|
Ab-0-0-0-0-0-----------------------|
Db-0-0-0-0-0-----------------------|
PM . . . . .

eb---------------------------------|
Bb------------15b16r15b16r15b16r15-|
Gb---------------------------------|
Db-0-0-0-0-0-----------------------|
Ab-0-0-0-0-0-----------------------|
Db-0-0-0-0-0-----------------------|
PM . . . . .

eb---------------------------------|
Bb------------18b19r18b19r18b19r18-|
Gb---------------------------------|
Db-0-0-0-0-0-----------------------|
Ab-0-0-0-0-0-----------------------|
Db-0-0-0-0-0-----------------------|
PM . . . . .

eb---------------------------------|
Bb---------------------------------|
Gb------------14b15r14b15r14b15r14-|
Db-0-0-0-0-0-----------------------|
Ab-0-0-0-0-0-----------------------|
Db-0-0-0-0-0-----------------------|
PM . . . . .

Pre-Chorus - Play the first six notes of the Intro slowly, in a 12/8 time signature, and 
WITHOUT the Delay/Echo.

Bridge/Outro
eb-------------------------------------------------|
Bb---------------------------------3---------3-----|
Gb-----2---------2--------2----7-7-2-----7-7-2-----|
Db-0-0-2-----0-0-2----0-0-2----0-0-2-----0-0-2-----|
Ab-0-0-0-----0-0-0----0-0-0----0-0-0-----0-0-0-----|
Db-0-0-------0-0------0-0------0-0-------0-0-------|
PM . . .     . . .    . . .    . . .     . . .

Order:
Intro x2
Chorus x2
Mid-Chorus x1
Chorus x2
Verse x4
Pre Chorus x1
Chorus x2
Mid Chorus x1
Chorus x2
Verse x2
Pre Chorus x1
Chorus x2
Mid Chorusx1
Tap to rate this tab
# A B C D E F G H I J K L M N O P Q R S T U V W X Y Z