Song name
# A B C D E F G H I J K L M N O P Q R S T U V W X Y Z

10 Years - Wakeing Up tab

Help us improve GuitareTab! Take a short survey!
10 years- Wakeing up

----------------------------|Repeat this a few times
----------------------------|
----------------------------|
-9-9/10-10-9-9-12-5-7-------|
----------------------------|
----------------------------|


------------------------------|(2x)
------------------------------|
------------------------------|
9-10-7-7-7-9-10-7-7-7-3-3-3/5-|
7-7--7-7-7-7-7--7-7-7-3-3-3/5-|
7-7--7-7-7-7-7--7-7-7-3-3-3/5-|

----------------------------|
----------------------------|
----------------------------|
-9-9/10-10-9-9-12-5-7-------|
----------------------------|
----------------------------|

------------------------------|(4x)
------------------------------|
------------------------------|
9-10-7-7-7-9-10-7-7-7-3-3-3/5-|
7-7--7-7-7-7-7--7-7-7-3-3-3/5-|
7-7--7-7-7-7-7--7-7-7-3-3-3/5-|


----------------------------|(x2)
----------------------------|
----------------------------|
-9-9-10-10-9-9-12-5-7--7----|
-----------------------7----|
-----------------------7----|


----------------------------|
----------------------------|
----------------------------|
----------------------------|
-18/3-3-3/5-----------------|
----------------------------|


This should be about right, but how many time you do it might be off.

Allyn Davis
Related for Wakeing Up tab