Song name
# A B C D E F G H I J K L M N O P Q R S T U V W X Y Z

10 Years - Shelter Acoustic tab

"Shelter (Acoustic)" - 10 Years

Tabbed by 'Thew

K this definitely ain't 100% right but it's kind of a guideline at least.
Work with it, you'll figure it out.
Nobody had done it so I figured I'd give it a shot.
If you got comments or suggestions, whatever, e-mail me: jahwarrior@crockettnet.com


[Solo]

e---------------------------9-9/11-11-11-11-11-8-8-11-9-8------------------------|
B------7--6h76---------11---------------------------------9-9-9h11-9-7-----------|
G----6---------6--8--8----8-------------------------------------------6-8--------|
D--------------------------------------------------------------------------------|
A--------------------------------------------------------------------------------|
E--------------------------------------------------------------------------------|


e----------------9-9/11-11-11-11-11-8-8-11-9-8------------------------|
B----------11-----------------------------------9-9-------------------|
G----8---8----8-------------------------------------------------------|
D--------------------------------------------------6-6h8-6-4----------|
A-----------------------------------------------------------4-6-------|
E---------------------------------------------------------------------|


e---------------------------------------------------------------------|
B---------------------------------------------------------------------|
G---------------------------------------------------------------------|
D--8-4---8-4---11-8---11-8---11-8-------11-9-8-9----------------------|
A------6-----9------9------9-------6-8-----------9-8-8-8h9-6-4-6------|
E---------------------------------------------------------------------|


e---------------------------------------------------------------------|
B---------------------------------------------------------------------|
G---------------------------------------------------------------------|
D--8-4---8-4---11-8---11-8---11-8-------11-9-8-9----------------------|
A------6-----9------9------9-------6-8-----------9-8-8----------------|
E---------------------------------------------------------------------|
Tap to rate this tab
 
# A B C D E F G H I J K L M N O P Q R S T U V W X Y Z