Song name
# A B C D E F G H I J K L M N O P Q R S T U V W X Y Z

10 Years - When Will You Breathe tab

Song: When Will You Breathe
Band: 10 Years!!!
Album: Into The Half Moon
Tuning: Dropped Db/T.Y.T.(Ten Years Tuning guys...)


Ok baby...this is my second tab in uh....3 days...so I'm kinda on a roll. My goal is to 
to tab up every 10 Years song from their first album
Into The Half Moon, so if you see songs from the band you've never seen/heard 
are it's from this album.
Ok...here it is...& this song is an acoustic song...and believe me, if you play it with 
exact rhythm the song has...it sounds awesome!!! So...here it is, When Will You Breathe.

Intro:
Eb--------1-0--------------1-0----|-----------|
Bb------------3-1--------------3-1|-----------|
Gb---0-2h-------------0-2h--------|-----------|
Db-0----------------0-------------|-----------|
Ab--------------------------------|-----------|
Db--------------------------------|-----------|


Verses 1/2:
  |______________________________[x3]________________________________|
Eb---------------------------------|---------------------------------|
Bb------------------8---8-----8---8|------------------8---8-----8---8|
Gb---0-2-10-9-7-5-5---5---5-5---5--|---0-2-10-9-7-5-5---5---5-5---5--|
Db-0------------5-5---5---5-5---5--|-0------------5-5---5---5-5---5--|
Ab-0------------5-5---5---5-5---5--|-0------------5-5---5---5-5---5--|
Db-0-------------------------------|-0-------------------------------|


"Pre-Chorus":                         [x3]
Eb-----5---5-----5---5-----3---3-----3---3|
Bb----------------------------------------|
Gb-5-5---5---5-5---5---3-3---3---3-3---3--|
Db-5-5---5---5-5---5---3-3---3---3-3---3--|
Ab-3-3---3---3-3---3---1-1---1---1-1---1--|
Db----------------------------------------|

Eb-----5---5-----5---5-----8---8-----8---8|
Bb----------------------------------------|
Gb-5-5---5---5-5---5---5-5---5---5-5---5--|
Db-5-5---5---5-5---5---7-7---7---7-7---7--|
Ab-3-3---3---3-3---3---5-5---5---5-5---5--|
Db----------------------------------------|

(Verse 2)
("Pre-Chorus")


Chorus:(Timing & rhythm gets kinda confusing here...listen to it)
  |____________________[x2]____________________|
Eb---------------------------------------------|
Bb---------------------------------------------|
Gb---10-9-5555-55555-5555--10-9-5555-55555-5555|
Db-0------5555-55555-55550------5555-55555-5555|
Ab-0------3333-33333-33330------3333-33333-3333|
Db-0---------------------0---------------------|

(Verse 3 is the same as verses 1&2, but play it 4 times instead of 3 times)
("Pre-Chorus")
(Chorus is played 4 times, & GOD do I love how it sounds!!!)

Outro:                    (let last chord ring...)|
Eb------------------------------------------------|
Bb------------------8---8-----8---8---------------|
Gb---0-2-10-9-7-5-5---5---5-5---5-----0-2-10-9-7-5|
Db-0------------5-5---5---5-5---5---0------------5|
Ab-0------------5-5---5---5-5---5---0------------5|
Db-0--------------------------------0-------------|

And that's it! Not too hard huh? Again...if you have NO idea WHERE to listen to this 
go to 10yearsfans.net, & go under the media section after the intro...and you should figure 
out from there. 10 YEARS ALL THE WAY BABY!!!
Tap to rate this tab
 
# A B C D E F G H I J K L M N O P Q R S T U V W X Y Z