Song name
# A B C D E F G H I J K L M N O P Q R S T U V W X Y Z

1000 Robota - Lauf Lauf Lauf tab

Listen to the song for the right rythm.



e|------------------------------------------12--12--12--12-----|
B|----11---14---9---9--9--9---11---14---9----------------------|
G|-------------------------------------------------------------|
D|-------------------------------------------------------------|
A|-------------------------------------------------------------|
E|-------------------------------------------------------------|



e|------------------------------------------12-12-12-12-12-----|
B|----11---14---9---9--9--9---11---14---9----------------------|
G|-------------------------------------------------------------|
D|-------------------------------------------------------------|
A|-------------------------------------------------------------|
E|-------------------------------------------------------------|
Tap to rate this tab
 
# A B C D E F G H I J K L M N O P Q R S T U V W X Y Z