Song name
# A B C D E F G H I J K L M N O P Q R S T U V W X Y Z

1000 Travels Of Jawaharlal - With Smile And Slobber tab

Band: 1000 Travels of Jawaharlal
Album: Owari Wa Konai (2003)
Track n1: With Smile and Slobber

Tabbed by Samoth


Intro / Riff 1
--------------

E|---------------------------------|
B|---------------------------------|
G|-888888888888888-444444444444444-|
D|-888888888888888-444444444444444-|
A|-666666666666666-222222222222222-|
D|---------------------------------|




Riff 2
------

Guitar 1

E|------------------------------------------------------------| \
B|------------------------------------------------------------|  |
G|-8--6/8-6/8-6/8-6/8-6/8-6/8-6/8-6/8-6/8-6/8-6/8-6/8-6/8-6/8-|  |
D|-8--6/8-6/8-6/8-6/8-6/8-6/8-6/8-6/8-6/8-6/8-6/8-6/8-6/8-6/8-|  |
A|-6--6/6-6/6-6/6-6/6-6/6-6/6-6/6-6/6-6/6-6/6-6/6-6/6-6/6-6/6-|  |
D|------------------------------------------------------------|  |
                                                                 | play this part 3 times
E|------------------------------------------------------------|  |
B|------------------------------------------------------------|  |
G|-4--2/4-2/4-2/4-2/4-2/4-2/4-2/4-2/4-2/4-2/4-2/4-2/4-2/4-2/4-|  |
D|-4--2/4-2/4-2/4-2/4-2/4-2/4-2/4-2/4-2/4-2/4-2/4-2/4-2/4-2/4-|  |
A|-2--2/2-2/2-2/2-2/2-2/2-2/2-2/2-2/2-2/2-2/2-2/2-2/2-2/2-2/2-|  |
D|------------------------------------------------------------| /


E|------------------------------------------------------------|
B|------------------------------------------------------------|
G|-8--6/8-6/8-6/8-6/8-6/8-6/8-6/8-6/8-6/8-6/8-6/8-6/8-6/8-6/8-|
D|-8--6/8-6/8-6/8-6/8-6/8-6/8-6/8-6/8-6/8-6/8-6/8-6/8-6/8-6/8-|
A|-6--6/6-6/6-6/6-6/6-6/6-6/6-6/6-6/6-6/6-6/6-6/6-6/6-6/6-6/6-|
D|------------------------------------------------------------|

E|-------------------------------|
B|-------------------------------|
G|-4--2/4-2/4-2/4--3--3------6-8-|
D|-4--2/4-2/4-2/4--3--3--6-8-6-8-|
A|-2--2/2-2/2-2/2--1--1--6-8-4-6-|
D|-----------------------6-8-----|


Guitar 2

E|------------------------| \
B|-------2-----------2----|  |
G|----3-----3-----3-----3-|  | play this part 4 times
D|-1-----------2----------|  |
A|------------------------|  |
D|------------------------| /

E|-------|
B|-2/4-2-|
G|-------|
D|-------|
A|-------|
D|-------|




Riff 3
------

E|------------------------------------------------------|
B|------------------------------------------------------|
G|----------------------------------------4-4-4-4-4-4-4-|
D|-1--1--1-1-1--3--3--3-3-3--4--4--4-4-4--4-4-4-4-4-4-4-|
A|-1--1--1-1-1--3--3--3-3-3--4--4--4-4-4--2-2-2-2-2-2-2-|
D|-1--1--1-1-1--3--3--3-3-3--4--4--4-4-4----------------|

E|-----------------------|----------------------|
B|-----3---3-------3---3-|----3---3-------3---3-|
G|---1-----------1-------|--1-----------1-------|
D|-1-----1---1-2-----2---|2-----1---1-2-----2---|
A|-----------------------|----------------------|
D|-----------------------|----------------------|




Break

E|----|
B|----|
G|----|
D|-1:-|
A|-1:-|
D|-1:-|




Solo
----

Guitar 1

E|------------|------------| \
B|-----6-7----|-----6-7----|  |
G|-6-8-----6:-|-6-8--------|  |
D|------------|---------8:-|  | play this part 3 times
A|------------|------------|  |
D|------------|------------| /

E|------------|------------------------------------|
B|-----6-7----|------------------------------------|
G|-6-8-----6:-|-6--6/8-6/8-6/8-6/8-6/8-6/8-6/8-6/8-|
D|------------|------------------------------------|
A|------------|------------------------------------|
D|------------|------------------------------------|

E|---------------|---------------|----------------|---------------|
B|-7--7-6--7-6---|-7--7-6--7-6---|----------------|-------------6-|
G|-------------8-|-------------6-|-8--8-6--8-6----|-6-------6-8---|
D|---------------|---------------|--------------8-|----6-8--------|
A|---------------|---------------|----------------|---------------|
D|---------------|---------------|----------------|---------------|

E|---------------|---------------|---------------|--------------|
B|-7--7-6--7-6---|-7--7-6--7-6---|---------------|--------9-9-9-|
G|-------------8-|-------------6-|-8--8-8--8-6---|-6--8-8-------|
D|---------------|---------------|-------------8-|--------------|
A|---------------|---------------|---------------|--------------|
D|---------------|---------------|---------------|--------------|

E|---------------|---------------|---------------|---------------|\
B|-7--7-7--7-7-7-|-6--6-6--6-6-6-|---------------|---------------| |
G|---------------|---------------|-8--8-8--8-8-8-|-6--6-6--6-6-6-| |
D|---------------|---------------|---------------|---------------| | play this part 2 times
A|---------------|---------------|---------------|---------------| |
D|---------------|---------------|---------------|---------------|/


E|---------------|---------------|---------------|----------------------| \
B|-7--7-7--7-7-7-|-6--6-6--6-6-6-|---------------|----------------------|  |
G|---------------|---------------|-8--8-8--8-8-8-|-15-15-15-15-15-15-15-|  |
D|---------------|---------------|---------------|----------------------|  | play this part 4 times
A|---------------|---------------|---------------|----------------------|  |
D|---------------|---------------|---------------|----------------------| /


Guitar 2

E|--------| \
B|--------|  |
G|--------|  |
D|-4:--1:-|  | play this part 4 times
A|-4:--1:-|  |
D|-4:--1:-| /

E|---------------|---------------|---------------|---------------| \
B|---------------|---------------|---------------|---------------|  |
G|---------------|---------------|---------------|---------------|  |
D|-4--4-4--4-4-4-|-4--4-4--4-4-4-|-1--1-1--1-1-1-|-1--1-1--1-1-1-|  | play this part 7 times
A|-4--4-4--4-4-4-|-4--4-4--4-4-4-|-1--1-1--1-1-1-|-1--1-1--1-1-1-|  |
D|-4--4-4--4-4-4-|-4--4-4--4-4-4-|-1--1-1--1-1-1-|-1--1-1--1-1-1-| /

E|---------------|---------------|--------------------------------|
B|---------------|---------------|--------------------------------|
G|---------------|---------------|--------------------------------|
D|-4--4-4--4-4-4-|-4--4-4--4-4-4-|-8--8-8--6--6-6--8--8-8--9--9-9-|
A|-4--4-4--4-4-4-|-4--4-4--4-4-4-|-8--8-8--6--6-6--8--8-8--9--9-9-|
D|-4--4-4--4-4-4-|-4--4-4--4-4-4-|-8--8-8--6--6-6--8--8-8--9--9-9-|



Ending
------

E|---------|
B|---------|
G|-3--3--3-|
D|-3--3--3-|
A|-1--1--1-|
D|---------|




Song structure
--------------

Intro / Riff 1 x4
Riff 2
Intro / Riff 1 x4
Riff 3 x2
Intro / Riff 1 x4
Riff 3 x2
Break
Solo
Riff 3 x2
Ending
Tap to rate this tab
 
# A B C D E F G H I J K L M N O P Q R S T U V W X Y Z