Song name
# A B C D E F G H I J K L M N O P Q R S T U V W X Y Z

10000 Maniacs - Dont Talk tab

Here are two ways to play the solo for Don't Talk by 10,000 Maniacs:

--------------------------------------------------------------------------
			     Don't Talk - 10,000 Maniacs
--------------------------------------------------------------------------
Tabbed by:  lilhoser
Email:  l i l h o s e r    @T    g m a i l    D0T   c o m
Tuning:  Standard

Method #1 (used by Buck in youtube video):

    F#      B       A   D        F#      B  
e|--2-3-2-0-----0-0--------------2-3-2-0-----0-0---2-3-2-0-----2-3-2-0------|
B|------------3---------3------------------3---------------3-----------3---3|
G|----------4-------2-----4-2------------4-------------------------------2--|
D|--------------------------------------------------------------------------|
A|--------------------------------------------------------------------------|
E|--------------------------------------------------------------------------|

e|-0-2-0--------------------------------------------------------------------|
B|--------------------------------------------------------------------------|
G|--------------------------------------------------------------------------|
D|--------------------------------------------------------------------------|
A|--------------------------------------------------------------------------|
E|--------------------------------------------------------------------------|

Method #2:

e|--------------------------------------------------------------------------|
B|--------------------------------------------------------------------------|
G|-11-12-11-9--7-9-9---7------11-12-11-9--7-9-9--11-12-11-9-7--11-12-11-9-7-|
D|-----------9-------7---9-7------------9-----------------------------------|
A|--------------------------------------------------------------------------|
E|--------------------------------------------------------------------------|

e|--------------------------------------------------------------------------|
B|--------------------------------------------------------------------------|
G|---7-9-11-9---------------------------------------------------------------|
D|-7------------------------------------------------------------------------|
A|--------------------------------------------------------------------------|
E|--------------------------------------------------------------------------|
Tap to rate this tab
# A B C D E F G H I J K L M N O P Q R S T U V W X Y Z