Song name
# A B C D E F G H I J K L M N O P Q R S T U V W X Y Z

1017 - Rotnibur tab

Tabber: Rodel F. Fariņas
Friendster account: rain_aien052@yahoo.com
Contact #: 09189055868/09196998754
Date: Oct. 25, 2007

Intro:

e---------------------------------------------------------I
b---------------------------------------------------------I
g---------------------------------------------------------I
d---------------------------------------------------------I
a---5-5-5-5--10-10-10-10--12-12-12-12--10-10-10-10--------I
E---3-3-3-3---8--8--8--8--10-10-10-10---8--8--8--8--------I
(play twice)

Verse:

e-----------------------------------------------------------I
b-----------------------------------------------------------I
g-----------------------------------------------------------I
d-----------------------------------------------------------I
a---5555555-10101010101010--12121212121212-10101010101010---I
E---3333333--8-8-8-8-8-8-8--10101010101010--8-8-8-8-8-8-8---I

e-----------------------------------------------------------I
b-----------------------------------------------------------I
g-----------------------------------------------------------I
d-----------------------------------------------------------I
a---5555555-10101010101010--12121212121212-10101010101010---I
E---3333333--8-8-8-8-8-8-8--10101010101010--8-8-8-8-8-8-8---I

Chorus:

e---------------------------------------------------------I
b---------------------------------------------------------I
g---------------------------------------------------------I
d---------------------------------------------------------I
a---5-5-5-5--10-10-10-10--12-12-12-12--10-(hold)----------I
E---3-3-3-3---8--8--8--8--10-10-10-10---8-(hold)----------I
                                       rotnibur....

2nd intro:

e-----------------------------------------------------------I
b-----------------------------------------------------------I
g-----------------------------------------------------------I
d-----------------------------------------------------------I
a---5555555-10101010101010--12121212121212-10101010101010---I
E---3333333--8-8-8-8-8-8-8--10101010101010--8-8-8-8-8-8-8---I

Verse:

e-----------------------------------------------------------I
b-----------------------------------------------------------I
g-----------------------------------------------------------I
d-----------------------------------------------------------I
a---5555555-10101010101010--12121212121212-10101010101010---I
E---3333333--8-8-8-8-8-8-8--10101010101010--8-8-8-8-8-8-8---I
(twice)

[repeat chorus]

adlib:

e-----------------------------------------------------------I
b-----------------------------------------------------------I
g-----------------------------------------------------------I
d-----------------------------------------------------------I
a---5555555-10101010101010--12121212121212-10101010101010---I
E---3333333--8-8-8-8-8-8-8--10101010101010--8-8-8-8-8-8-8---I
(4x)

Chorus:

e---------------------------------------------------------I
b---------------------------------------------------------I
g---------------------------------------------------------I
d---------------------------------------------------------I
a---5-5-5-5--10-10-10-10--12-12-12-12--10-10-10-10--------I
E---3-3-3-3---8--8--8--8--10-10-10-10---8--8--8--8--------I

e---------------------------------------------------------I
b---------------------------------------------------------I
g---------------------------------------------------------I
d---------------------------------------------------------I
a---5-5-5-5--10-10-10-10--12-12-12-12--10-(hold)----------I
E---3-3-3-3---8--8--8--8--10-10-10-10---8-(hold)----------I
                                       rotnibur...

coda:

rotnibur....(6x)
e----------------------------------------------------------------I
b----------------------------------------------------------------I
g----------------------------------------------------------------I
d----------------------------------------------------------------I
a---5-5-5-5--10-10-10-10--12-12-12-12--10-10-10-10---5-(hold)----I
E---3-3-3-3---8--8--8--8--10-10-10-10---8--8--8--8---3-(hold)----I

[fin]

pls rate!

Tap to rate this tab
# A B C D E F G H I J K L M N O P Q R S T U V W X Y Z